Log in

One click and you are in

Login with Facebook Login with Google

Why sign up and log in

Guitar Tabs Explorer
Ride bass tabs for Kaleidoscope

Bass tabs

January 17, 1995
These are the three main parts to the song, you'll have to listen to
the album to put the parts together.

Cheers.

                Kaleidoscope
 BASS TAB          ------------------
                 by Ride
             (from the album "Nowhere")
 Intro/Bridge
|---------------------------------------------------------------------||
|--------------------------------------------------------------------*||
|--5-------5-----0-----0-0-5---0-5-0-3---3-2-2---2-0-0---0-3---0-3-0-*||
|---------------------------------------------------------------------||


  Verse
||---2---2---2-0---2---2-------0----------------------------------------
||*--------------2---------0-2---2-0------------------------------------
||*----------------------------------3-----2-2-------------2-----3---5--
||-------------------------------------------------3-3---3-----3---3----


             3x    Chorus
---------------------------||-||-----------------0---0---0-----0--------
--------------------------*||-||*--2---2---2-2-2-----------0-2---0---0--
5---5-3-0-5---0---0-0---0-*||-||*---------------------------------------
---------------------------||-||----------------------------------------


-----------------------||---------------0---0---0-----0-----------------
0---0-2---------------*||-2---2---2-2-2-----------0-2---0-0-0-0-0-0-0-0-
--3-----0---0-0---0---*||-----------------------------------------------
-----------------------||-----------------------------------------------


------------------------||
0-0-0-0-0-0-0-0-0-------||
------------------0-----||
------------------------||

*************************************************************************
Transcriber: Christopher Pierce  (note: This is my rendition, and it's)
       piercec@ucs.orst.edu (   within your right to disagree.)
*************************************************************************

Almost there ...

Sign in to get your own page with links to favourite songs and more. You are just one click away...

Login with Facebook Login with Google