Log in

One click and you are in

Login with Facebook Login with Google

Why sign up and log in

Guitar Tabs Explorer
Lionel Richie bass tabs for Hello

Bass tabs

Lionel Richie – Hello
Guitar to Bass Solo

Standard Tuning: EADG
Tabbed by: Lucien Farzan

Listen good to the song for the timing and groove.
G|-----------7-9-10-7-9-5/7----------8/9-7------------|
D|----7-9-10----------------9—9/10-7------------------|
A|--7-------------------------------------------------|
E|----------------------------------------------------|

G|------14----16-17-14-16-12-14-9---------------------|
D|--/14----14-----------------------------------------|
A|----------------------------------------------------|
E|----------------------------------------------------|

G|--8/9-8/9-8/9\-5-5-7-9-12-7-------------------------|
D|----------------------------------------------------|
A|----------------------------------------------------|
E|----------------------------------------------------|

G|--20/21-22-21\-17/19-21-19--17\16/17\16/14\12/14----|
D|----------------------------------------------------|
A|----------------------------------------------------|
E|----------------------------------------------------|

G|------14----16-17-14-16-12-14-----------------------|
D|--/14----14-------------------14--------------------|
A|----------------------------------------------------|
E|----------------------------------------------------|

G|--14-16-17-19-21------------------------------------|
D|----------------------------------------------------|
A|----------------------------------------------------|
E|----------------------------------------------------|


For corrections and suggestions mail me at: lfarzan@planet.nl

Other versions of Hello

Hello (Ver. 2)Bass tabs

Almost there ...

Sign in to get your own page with links to favourite songs and more. You are just one click away...

Login with Facebook Login with Google