Log in

One click and you are in

Login with Facebook Login with Google

Why sign up and log in

Guitar Tabs Explorer
Cliff Richard bass tabs for Lucky lips

Bass tabs

Tuning : E A D G 	Time Signature: 4/4

  |        |        |        |
|------------------------------------------------------------------|
|------------------------------------------------------------------|
|------------------------------------------------------------------|
|-------------0-----------------------------------4----------------|

  |        |        |        |
|------------------------------------------------------------------|
|------------------------------------------------------------------|
|-----------------2-------------------------------4----------------|
|------------------------------------------------------------------|

  |        |        |        |
|------------------------------------------------------------------|
|------------------------------------------------------------------|
|-2-----------------------0-----------------------------------4----|
|-----4------------------------------------------------------------|

  |        |        |        |
|------------------------------------------------------------------|
|-------------2----------------------------------------------------|
|-------------------------------2-----------------0----------------|
|------------------------------------------------------------------|

  |        |        |        |
|------------------------------------------------------------------|
|------------------------------------------------------------------|
|------------------------------------------------------------------|
|---4-------------2-------------------0----------------------------|

  |        |        |        |
|------------------------------------------------------------------|
|------------------------------------------------------------------|
|-----------------------------------------2------------------------|
|---------4--------------------------------------------------------|

  |        |        |        |
|------------------------------------------------------------------|
|------------------------------------------------------------------|
|---------4---------------2-----------------------0----------------|
|---------------------------------4--------------------------------|

  |        |        |        |
|------------------------------------------------------------------|
|---------------------------------------2--------------------------|
|---------------------4-----------0-------------------2------------|
|------------------------------------------------------------------|

  |        |        |        |
|------------------------------------------------------------------|
|------------------------------------------------------------------|
|---------0--------------------------------------------------------|
|-------------------------4-------------------2---------------0----|

  |        |        |        |
|------------------------------------------------------------------|
|------------------------------------------------------------------|
|------------------------------------------------------------------|
|---------------------------------4--------------------------------|

  |        |        |        |
|------------------------------------------------------------------|
|------------------------------------------------------------------|
|-----2---------------------------4---------------2----------------|
|---------------------------------------------------------4--------|

  |        |        |        |
|------------------------------------------------------------------|
|---------------------------------------------1--------------------|
|---------2--------------------------------------------------------|
|------------------------------------------------------------------|

  |        |        |        |
|---------------------------------------------1--------------------|
|-----------------4-------------------------------------------4----|
|------------------------------------------------------------------|
|------------------------------------------------------------------|

  |        |        |        |
|------------------------------------------------------------------|
|-----1---------------------------------------------------1--------|
|---------------------2--------------------------------------------|
|------------------------------------------------------------------|

  |        |        |        |
|---------------------------------------------------------1--------|
|-----------------------------4------------------------------------|
|------------------------------------------------------------------|
|------------------------------------------------------------------|

  |        |        |        |
|------------------------------------------------------------------|
|---------4-------1------------------------------------------------|
|------------------------------------------------------------------|
|---------------------------------0--------------------------------|

  |        |        |        |
|------------------------------------------------------------------|
|------------------------------------------------------------------|
|-----------------------------------------2------------------------|
|-----4------------------------------------------------------------|

  |        |        |        |
|------------------------------------------------------------------|
|------------------------------------------------------------------|
|-----4-----------------2------------------------------------------|
|-----------------------------4---------------0--------------------|

  |        |        |        |
|------------------------------------------------------------------|
|------------------------------------------------------------------|
|-----------------------------------------------------2------------|
|-----------------4------------------------------------------------|

  |        |        |        |
|------------------------------------------------------------------|
|------------------------------------------------------------------|
|-----------------4---------------2-----------------------0--------|
|-----------------------------------------4------------------------|

  |        |        |        |
|------------------------------------------------------------------|
|------------------------------------------------------------------|
|-----------------------------4------------------------------------|
|------------------------------------------------------------------|

  |        |        |        |
|------------------------------------------------------------------|
|-2-----------------------------4-------------2--------------------|
|-----------------------------------------------------4------------|
|------------------------------------------------------------------|

  |        |        |        |
|------------------------------------------------------------------|
|------------------------------------------------------------------|
|-----2-----------------------------------0------------------------|
|------------------------------------------------------------------|

  |        |        |        |
|------------------------------------------------------------------|
|------------------------------------------------------------------|
|------------------------------------------------------------------|
|-------------4-----------------------------------2----------------|

  |        |        |        |
|------------------------------------------------------------------|
|------------------------------------------------------------------|
|-----------------2------------------------------------------------|
|------------------------------------------------------------------|

  |        |        |        |
|------------------------------------------------------------------|
|------------------------------------------------------------------|
|-------------------------------------2---2-----------2-------2----|
|------------------------------------------------------------------|

  |        |        |        |
|------------------------------------------------------------------|
|------------------------------------------------------------------|
|---------2-----2---------2----------------------------------------|
|-------------------------------0----------------------------------|

  |        |        |        |
|------------------------------------------------------------------|
|------------------------------------------------------------------|
|-------------------------------------2----------------------------|
|-4----------------------------------------------------------------|

  |        |        |        |
|------------------------------------------------------------------|
|------------------------------------------------------------------|
|-4-------------------2-------------------2------------------------|
|-------------------------4----------------------------------------|

  |        |        |        |
|------------------------------------------------------------------|
|-------------1-----------------------------------4----------------|
|------------------------------------------------------------------|
|------------------------------------------------------------------|

  |        |        |        |
|-------------1----------------------------------------------------|
|---------------------------------4---1----------------------------|
|---------------------------------------------------------2--------|
|------------------------------------------------------------------|

  |        |        |        |
|------------------------------------------------------------------|
|-------------------------1-------------------------------------4--|
|------------------------------------------------------------------|
|------------------------------------------------------------------|

  |        |        |        |
|---------------------------1--------------------------------------|
|---------------------------------------------4---1----------------|
|------------------------------------------------------------------|
|------------------------------------------------------------------|

  |        |        |        |
|------------------------------------------------------------------|
|------------------------------------------------------------------|
|------------------------------------------------------------------|
|-----0-------------------------------4----------------------------|

  |        |        |        |
|------------------------------------------------------------------|
|------------------------------------------------------------------|
|---------2---------------------------4-------------------2--------|
|-------------------------------------------------------------4----|

  |        |        |        |
|------------------------------------------------------------------|
|------------------------------------------------------------------|
|------------------------------------------------------------------|
|-----------------0-------------------------------4----------------|

  |        |        |        |
|------------------------------------------------------------------|
|------------------------------------------------------------------|
|---------------------2---------------------------4----------------|
|------------------------------------------------------------------|

  |        |        |        |
|------------------------------------------------------------------|
|------------------------------------------------------------------|
|-----2-----------------------0---------------------------------4--|
|---------4--------------------------------------------------------|

  |        |        |        |
|------------------------------------------------------------------|
|---------------------------------2--------------------------------|
|------------------------------------------------------------------|
|------------------------------------------------------------------|

  |        |        |        |
|------------------------------------------------------------------|
|-4---------------2------------------------------------------------|
|-----------------------4-----------------2------------------------|
|------------------------------------------------------------------|

  |        |        |        |
|------------------------------------------------------------------|
|------------------------------------------------------------------|
|---------0--------------------------------------------------------|
|---------------------------------------------4--------------------|

  |        |        |        |
|------------------------------------------------------------------|
|------------------------------------------------------------------|
|-----------------------------------------------------2------------|
|-----------------2------------------------------------------------|

  |        |        |        |
|------------------------------------------------------------------|
|------------------------------------------------------------------|
|------------------------------------------------------------------|
|------------------------------------------------------------------|

  |        |        |        |
|------------------------------------------------------------------|
|------------------------------------------------------------------|
|-----2-------2-----------2-----2---------2---2-------------2------|
|------------------------------------------------------------------|

  |        |        |        |
|------------------------------------------------------------------|
|------------------------------------------------------------------|
|------------------------------------------------------------------|
|-0-----------------------------------4----------------------------|

  |        |        |        |
|------------------------------------------------------------------|
|------------------------------------------------------------------|
|-------2-----------------------------4---------------2------------|
|-------------------------------------------------------------4----|

  |        |        |        |
|------------------------------------------------------------------|
|------------------------------------------------------------------|
|-------------0-----------------------------------4-----------0----|
|------------------------------------------------------------------|

  |        |        |        |
|------------------------------------------------------------------|
|---2--------------------------------------------------------------|
|-----------------2-------------------0----------------------------|
|-----------------------------------------------------4------------|

  |        |        |        |
|------------------------------------------------------------------|
|------------------------------------------------------------------|
|------------------------------------------------------------------|
|---------2---------------0-----------------------------------4----|

  |        |        |        |
|------------------------------------------------------------------|
|------------------------------------------------------------------|
|-----------------------------2-------------------------------4----|
|------------------------------------------------------------------|

  |        |        |        |
|------------------------------------------------------------------|
|------------------------------------------------------------------|
|-------------2-----------------------2----------------------------|
|---------------------4--------------------------------------------|

  |        |        |        |
|------------------------------------------------------------------|
|---------1-----------------------------------4--------------------|
|------------------------------------------------------------------|
|------------------------------------------------------------------|

  |        |        |        |
|---------1--------------------------------------------------------|
|-------------------------4-------1--------------------------------|
|-------------------------------------------------2----------------|
|------------------------------------------------------------------|

  |        |        |        |
|------------------------------------------------------------------|
|---------------------1-----------------------------------4--------|
|------------------------------------------------------------------|
|------------------------------------------------------------------|

  |        |        |        |
|---------------------1--------------------------------------------|
|-------------------------------------4-------1--------------------|
|------------------------------------------------------------------|
|---------------------------------------------------------------0--|

  |        |        |        |
|------------------------------------------------------------------|
|------------------------------------------------------------------|
|------------------------------------------------------------------|
|---------------------------------4--------------------------------|

  |        |        |        |
|------------------------------------------------------------------|
|------------------------------------------------------------------|
|-----2---------------------------4---------------2----------------|
|---------------------------------------------------------4--------|

  |        |        |        |
|------------------------------------------------------------------|
|------------------------------------------------------------------|
|------------------------------------------------------------------|
|---------0-----------------------------------4--------------------|

Almost there ...

Sign in to get your own page with links to favourite songs and more. You are just one click away...

Login with Facebook Login with Google