Log in

One click and you are in

Login with Facebook Login with Google

Why sign up and log in

Guitar Tabs Explorer
Rich Brian bass tabs for Love in my pocket

Bass tabs with lyrics

Tuning: Standard (E A D G)


Intro:
G|----------------|------------------|----------------|----------------|
D|----------------|-----------8------|----------3-----|----------3-----|
A|-----6-8-10-8-6-|6---6-8-10---10-8-|------3-6---6-3-|------3-6---6-3-|
E|8-6-8-----------|--6---------------|4-3-4-----------|4-3-4-----------|

Verse 1:
G|----------------|------------------|----------------|----------------|
D|----------------|-----------8------|----------3-----|----------3-----| Play 4x (once per lyrics line)
A|-----6-8-10-8-6-|6---6-8-10---10-8-|------3-6---6-3-|------3-6---6-3-|
E|8-6-8-----------|--6---------------|4-3-4-----------|4-3-4-----------|

I got love up in my pocket and I don't know what to do with it

I got love up in my rocket and I don't know what to do with it

I got you up in my dreams but I'm all stuck in the reality

That you never really felt the same, it's more like you were using me


Chorus:
G|----------------|----------------|----------------|----------------|
D|--3---3---3---3-|--6---6---6---6-|--10--10--10--10|--8--10--12--13-|
A|----------------|----------------|----------------|----------------|
E|1---1---1---1---|4---4---4---4---|8---8---8---8---|6---8--10--11---|

I get chills when you leave my body
(I get chills when you leave my body)

G|----------------|----------------|----------------|----------------|
D|--3---3---3---3-|--6---6---6---6-|--10--10--10--10|--8---8---8---8-|
A|----------------|----------------|----------------|----------------|
E|1---1---1---1---|4---4---4---4---|8---8---8---8---|6---6---6---6---|

I get chills when you're not inside me
(I get chills when you're not inside me)
(Chills, and chills, and chills)


Verse 2:
G|----------------|------------------|----------------|----------------|
D|----------------|-----------8------|----------3-----|----------3-----| Play 3x (once per lyrics line)
A|-----6-8-10-8-6-|6---6-8-10---10-8-|------3-6---6-3-|------3-6---6-3-|
E|8-6-8-----------|--6---------------|4-3-4-----------|4-3-4-----------|

I got love up in my pocket and I don't know what to do with it
(Do with it, mm, do with it)

I got love up in my rocket and I don't know what to do with it
(Do with it, mm, do with it)

And I'm hot as hell in the wishing well love your eyes when you look at me

G|----------------|------------------|----------------|
D|----------------|-----------8------|----------3-----| Stop playing at "forget" word
A|-----6-8-10-8-6-|6---6-8-10---10-8-|------3-6---6-3-|
E|8-6-8-----------|--6---------------|4-3-4-----------|

There's no way to say how much time it takes to move on and forget, and keep it movin'


Bridge:
G|----------------|------------------|----------------|----------------|
D|----------------|-----------8------|----------3-----|----------3-----|
A|-----6-8-10-8-6-|6---6-8-10---10-8-|------3-6---6-3-|------3-6---6-3-|
E|8-6-8-----------|--6---------------|4-3-4-----------|4-3-4-----------|


Verse 3:
G|----------------|------------------|----------------|----------------|
D|----------------|-----------8------|----------3-----|----------3-----| Play 3x (once per lyrics line)
A|-----6-8-10-8-6-|6---6-8-10---10-8-|------3-6---6-3-|------3-6---6-3-|
E|8-6-8-----------|--6---------------|4-3-4-----------|4-3-4-----------|

That's my mind and I don't know just where it went it's still a mystery
(Mystery, mystery)

Took a trip and saw the sun, I swore I thought that shit was making rain
(Making rain, making rain)

Don't think you understand all the things that you make me see

G|---------------|---------------|---------------|------------------------|
D|---------------|---------------|---------------|------------------------|
A|---------------|---------------|---------------|--12-12-12-12-12-12-12--|
E|8---------8-8--|6---------6-6--|4---------4-4--|------------------------|

Make me move when I'm down, because you're movin' inside me


Chorus:
G|----------------|----------------|----------------|----------------|
D|--3---3---3---3-|--6---6---6---6-|--10--10--10--10|--8--10--12--13-|
A|----------------|----------------|----------------|----------------|
E|1---1---1---1---|4---4---4---4---|8---8---8---8---|6---8--10--11---|

I get chills when you leave my body
(I get chills when you leave my body)

G|----------------|----------------|----------------|----------------|
D|--3---3---3---3-|--6---6---6---6-|--10--10--10--10|--8---8---8---8-|
A|----------------|----------------|----------------|----------------|
E|1---1---1---1---|4---4---4---4---|8---8---8---8---|6---6---6---6---|

I get chills when you're not inside me
(I get chills when you're not inside me)
(Chills, and chills, and chills)


Rap:
G|----------------|------------------|----------------|----------------|
D|----------------|-----------8------|----------3-----|----------3-----| Play 4x (Till the raps done)
A|-----6-8-10-8-6-|6---6-8-10---10-8-|------3-6---6-3-|------3-6---6-3-|
E|8-6-8-----------|--6---------------|4-3-4-----------|4-3-4-----------|

Only takin' me a second to see if I'm gonna vibe with her
She say, "When you gonna finish ", I said, "In like five minutes"
She's an independent type, she never need a guy with her
Never mindin' my business, she my ride or die with it
Sippin' on the Goose right now, feelin' sad and aroused
So you're takin' off your mask when nobody's around
Girl, you ain't gotta do that shit around me
I'm a gentleman but spent a lot of time around freaks
So this fake facade just made some possibilities
For us to love without the liabilities
I'm proud to say you came in here to save me
Had a scope, but don't know where I'm aiming
Do you see the smile up on my motherfucking face?
I don't care what any other motherfuckers say
Lookin' 'round her now, see a hand over her
Someone look in the mirror, sayin' "Look at what you made"


Chorus:
G|----------------|----------------|----------------|----------------|
D|--3---3---3---3-|--6---6---6---6-|--10--10--10--10|--8--10--12--13-|
A|----------------|----------------|----------------|----------------|
E|1---1---1---1---|4---4---4---4---|8---8---8---8---|6---8--10--11---|

I get chills when you leave my body
(I get chills when you leave my body)

G|----------------|----------------|----------------|----------------|
D|--3---3---3---3-|--6---6---6---6-|--10--10--10--10|--8---8---8---8-|
A|----------------|----------------|----------------|----------------|
E|1---1---1---1---|4---4---4---4---|8---8---8---8---|6---6---6---6---|

I get chills when you're not inside me
(I get chills when you're not inside me)
(Chills, and chills, and chills)


Outro:
G|----------------|------------------|----------------|----------------|
D|----------------|-----------8------|----------3-----|----------3-----|
A|-----6-8-10-8-6-|6---6-8-10---10-8-|------3-6---6-3-|------3-6---6-3-| Play it till the music fading away
E|8-6-8-----------|--6---------------|4-3-4-----------|4-3-4-----------|

Almost there ...

Sign in to get your own page with links to favourite songs and more. You are just one click away...

Login with Facebook Login with Google