Log in

One click and you are in

Login with Facebook Login with Google

Why sign up and log in

Guitar Tabs Explorer
Damien Rice tabs for Groovin

Guitar tabs with lyrics

Groovin' - Damien Rice

Tabbed by myself from the live performance at The Lobby
in Cork, Ireland in 2002.

Ok, normal tuning and no capo. This song's basically all
based around the A chord diagramC majorC chord.

 A chord diagramE MajorE |------------------|-------------0x-|
 A chord diagramBB |----1---1---1---1-|---1---0-----0x-|
 A chord diagramG+G |----0---0---0---0-|---0h2-2/4---0x-|
 A chord diagramD MajorD |--------------2---|2h3-------------| x 2
 A chord diagramA augmentedA |0h3---2---0-------|----------------|
 A chord diagramE MajorE |------------------|----------------|
   |------------------|----------------|
   |----1---1---1---1-|--1---1---1---1-|
   |----0---0---0---0-|--0---0---0---0-|
   |------------------|3---2---1---0---|
   |0h3---2---0-------|----------------|
   |------------------|----------------|


   |----------------|----------------|
   |--1---1---1---1-|----x-----------|
   |--0---0---0---0-|----x---0-------|
   |------------2---|3---------------|
   |3---2---0-------|----------------|
   |----------------|----------------|

Repeat similar to above where it fits! You'll get the feel
for it quick enough.

Until..

*...that you are the one that's got me feeling this way*

Fill, (C, Fx4, A chord diagramG+G):

   |011113------|
   |111113------|
   |022223------|
   |233335------|
   |333335------|
   |-11113------|

Then carry on with the first bit(s).

I haven't worked out the ending yet so feel free to e-mail
me with it if you know it or have any other comments etc:
tholdermark@hotmail.com, cheers, Tom.

Almost there ...

Sign in to get your own page with links to favourite songs and more. You are just one click away...

Login with Facebook Login with Google