Log in

One click and you are in

Login with Facebook Login with Google

Why sign up and log in

Guitar Tabs Explorer
Rex Orange County bass tabs for Uno

Bass tabs

Tuning: Standard (E A D G)


Intro:

G|---------------------------------------------------------------------------|
D|---------------------------------------------------------------------------|
A|8----------11-10\----------------------------------------------------------|
E|---------------------------------------------------------------------------|

G|---------------------------------------------------------------------------|
D|---------------------------------------------------------------------------|
A|6-6-6--6--6-6-6-8-8-8--8---/11-10\-----------------------------------------|x2
E|------6--6------------8--8-------------------------------------------------|

"Well maybe I should fuck it and be happy instead"
G|---------------------------------------------------------------------------|
D|---------------------------------------------------------------------------|
A|6-6-6--6--6-6-6-8----------11-10\------------------------------------------|
E|------6--6-----------------------------------------------------------------|

G|---------------------------------------------------------------------------|
D|---------------------------------------------------------------------------|
A|6-6-6--6--6-6-6-8-8-8--8---/11-10\-----------------------------------------|x2
E|------6--6------------8--8-------------------------------------------------|


Verse 1:"'Cause there's a lot of people tryin' to tell me how to deal with myself"

G|---------------------------------------------------------------------------|
D|---------------------------------------------------------------------------|
A|6-6-6--6--6-6-6-8-8-8--8---/11-10\-----------------------------------------|x3
E|------6--6------------8--8-------------------------------------------------|


Pre-Chorus: "And it's bringing me down, and I'm not gonna lie"

G|---------------------------------------------------------------------------|
D|---------------------------------------------------------------------------|
A|---------------------------------------------------------------------------|
E|---------------------------------------------------------------------------|

Chorus:"'Cause time keeps rollin' and I'm just makin' songs"

G|---------------------------------------------------------------------------|
D|---------------------------------------------------------------------------|
A|6-6-6--6--6-6-6-8-8-8--8---/11-10\-----------------------------------------|x4
E|------6--6------------8--8-------------------------------------------------|


Verse 2: "Some people concentrate on style too much"
Not sure about the fills the bassist does in this part but these are the root notes

G|---------------------------------------------------------------------------|
D|---------------------------------------------------------------------------|
A|--------------------------------3-3-3-3-3-3-3-3-1-1-1-1-1-1-1-1------------|x2
E|4-4-4-4-4-4-4-4-3-3-3-3-3-3-3-3--------------------------------------------|


Verse 3: "Oh yeah, My jaw hurts a lot because I grind it with stress"

G|---------------------------------------------------------------------------|
D|---------------------------------------------------------------------------|
A|---------------------------------------------------------------------------|
E|---------------------------------------------------------------------------|


************************************

| \ Slide down
| / Slide up

************************************

Almost there ...

Sign in to get your own page with links to favourite songs and more. You are just one click away...

Login with Facebook Login with Google