Log in

One click and you are in

Login with Facebook Login with Google

Why sign up and log in

Guitar Tabs Explorer
Rex Orange County bass tabs for Television so far so good

Television So Far So Good bass tab by Rex Orange County

Rex Orange County bass tabs for Television so far so good

Bass tabs

Key: F

🎸 Intro:

G|---------------------------------------------------------------------------|
D|---------------------------------------------------------------------------|
A|---------------------------------------------------------------3x16--------|
E|-111-111-111 111-111-11111-1--------5-5-5-5-5------3-3-3-3-3---------------| x2

🎸 Verse 1:

G|---------------------------------------------------------------------------|
D|---------------------------------------------------------------------------|
A|--5-5-5-5-5-5-5-5-4-3-2--2-2-2-2--2-2-2-2------------------3-3-3-3-3-3-3-3-| x2
E|-------------------------------------------3-3-3-3-3-3-3-3-----------------|

🎸 Chorus:

G|---------------------------------------------------------------------------|
D|----3---3---3---3-------7---7---7---7--------------------------------------|
A|--------------------------------------------------------0-0-0-0------------|
E|--1---1---1---1------5----5---5---5------3---3---3---3---------------------|x2

🎸 Solo:

G|---7-7-7-7-7-7-7--10--12--14--------------2--------------------------------|
D|--------------------------------------3-5---5-3-5--------------------------|
A|----------------------------------3-5-------------5~-----------------------|
E|---------------------------------------------------------------------------|

G|---------2--2-2-2-2-2-2-5-5-5-5-5-5-6---7-7-7-7-7-7-7-6-5-4------------------|
D|-----3-5---------------------------------------------------------------------|
A|-3-5-------------------------------------------------------------------------|
E|-----------------------------------------------------------------------------|

G|--5-7-10-12-14--5-7-10-12-14---10-10-10-10-10-10-8------------------------- |
D|---------------------------------------------------------------------------|
A|---------------------------------------------------------------------------|
E|---------------------------------------------------------------------------|

🎸 Bridge:

G|---------------------------------------------------------------------------|
D|---------------------------------------------------------------------------|
A|---------------------------------------------------------------------------|
E|-1-----5------3------------------------------------------------------------|

Verus 3:

G|---------------------------------------------------------------------------|
D|---------------------------------------------------------------------------|
A|--5-5-5-5-5-5-5-5-4-3-2--2-2-2-2--2-2-2-2------------------3-3-3-3-3-3-3-3-| x2
E|-------------------------------------------3-3-3-3-3-3-3-3-----------------|

 (I guess that it’s time that I dried these tears)
G|---------------------------------------------------------------------------|
D|---------------------------------------------------------------------------|
A|---------------------------------------------------------------------------|
E|--1-1-1-1-1-1-1-1----------------------------------------------------------|

🎸 Outro:

G|---------------------------------------------------------------------------|
D|---------------------------------------------------------------------------|
A|--------------------5------------5-----------------------------------------|
E|-1----1-5-3x2-----5------1---3-------1--3----------------------------------|

G|---------------------------------------------------------------------------|
D|---------------------------------------------------------------------------|
A|------5--------------------------------------------------------------------|
E|--5------------------------------------------------------------------------|

Almost there ...

Sign in to get your own page with links to favourite songs and more. You are just one click away...

Login with Facebook Login with Google