Search tabs and chords

Search for song, artist or band

Log in

One click and you are in

Login with Facebook Login with Google

Why sign up and log in

Guitar Tabs Explorer
Rex Orange County guitar chords for Sunflower

Guitar chords with lyrics

Main chords:

    Fmaj7 chord diagramFmaj7Fmaj7    D#m7 chord diagramD#m7D#m7-5    C#maj7 chord diagramC#maj7C#maj7    Fm7 chord diagramFm7Fm7-5     D#m7 chord diagramD#m7D#m7    G#m7 chord diagramG#m7G#m7-5
e|----x---------x---------x--------x--------6--------x--------|
B|----11--------7---------6--------9--------7--------12-------|
G|----10--------6---------5--------8--------6--------11-------|
D|----11--------7---------6--------9--------8--------12-------|
A|----9---------6---------4--------8--------6--------11-------|
E|----x---------x---------x--------x--------x--------x--------|

Intro: 0:00-0:48

    G#m9 chord diagramG#m9G#m9         C#13 chord diagramC#13C#13           F#maj7 chord diagramF#maj7F#maj7        F#7 chord diagramF#7F#7          Bmaj7 chord diagramBmaj7Bmaj7
e|---x----x-----x----x-----------x-------------x--9-----------x--------------|
B|---11---11----11---11-12-14----11-11-12-14---11---11-9-7----7--------------|
G|---11---11----10---10----------10------------9--------------8--------------|
D|---9----9-----9----9-----------11------------11-------------8--------------|
A|---11---11----x----x-----------9-------------9--------------x--------------|
E|---x----x-----9----9-----------x-------------x--------------7--------------|

     C#13 chord diagramC#13C#13       Dm chord diagramDmDm        D#m chord diagramD#mD#m          D#m chord diagramD#mD#m/D chord diagramDD       Bmaj7 chord diagramBmaj7Bmaj7
e|----x---------x----------------------x-------------x-----------------------|
B|----x-11------10--------------11-----11------------7-----------------------|
G|---10----10---10----10-----11----11--11-11----11---8-----------------------|
D|----9---------12-12-----13-----------13----13------8-----------------------|
A|----x---------x---------x------------x-------------x-----------------------|
E|----9---------10--------11-----------10------------7-----------------------|

    G#m9 chord diagramG#m9G#m9         C#13 chord diagramC#13C#13           F#maj7 chord diagramF#maj7F#maj7        F#7 chord diagramF#7F#7          Bmaj7 chord diagramBmaj7Bmaj7
e|---x----x-----x----x-----------x-------------x------------x---x------------|
B|---11---11----11---11-12-14----11-11-12-14---11-11-9-7----7---7------------|
G|---11---11----10---10----------10------------9------------8---8------------|
D|---9----9-----9----9-----------11------------11-----------8---8------------|
A|---11---11----x----x-----------9-------------9------------x---x------------|
E|---x----x-----9----9-----------x-------------x------------7---x------------|

    C#13 chord diagramC#13C#13     Dm chord diagramDmDm     D#m chord diagramD#mD#m
e|----x------x------x-----------------|
B|----x------10-----11----------------|
G|---10------10-----11-11--11---------|
D|----9------12-----13--(13)----------|
A|----x------x------x-----------------|
E|----9------10-----11----------------|

Verse 1: 0:49
N.C.                  Fmaj7 chord diagramFmaj7Fmaj7
I don’t wanna see you cry
                  D#m7 chord diagramD#m7D#m7-5         C#maj7 chord diagramC#maj7C#maj7
You don’t have to feel this emptiness
            Fm7 chord diagramFm7Fm7-5                     D#m7 chord diagramD#m7D#m7    D#m7 chord diagramD#m7D#m7-5
She said I love you till the day that I die
 G#m7 chord diagramG#m7G#m7-5      Fmaj7 chord diagramFmaj7Fmaj7
Maybe she’s right
                    D#m7 chord diagramD#m7D#m7-5            C#maj7 chord diagramC#maj7C#maj7
Cause I don’t wanna feel like I’m not me
          Fm7 chord diagramFm7Fm7-5                    D#m7 chord diagramD#m7D#m7
And to be honest I don’t even know why
 D#m7 chord diagramD#m7D#m7-5                         G#m7 chord diagramG#m7G#m7-5   Fmaj7 chord diagramFmaj7Fmaj7
I let myself get down in the first place



Chorus 1: 1:20
          D#m7 chord diagramD#m7D#m7-5           C#maj7 chord diagramC#maj7C#maj7
Trying to keep my mind at bay
 Fm7 chord diagramFm7Fm7-5                     D#m7 chord diagramD#m7D#m7
Sunflowers still grows at night
 D#m7 chord diagramD#m7D#m7-5                                   G#m7 chord diagramG#m7G#m7-5    Fmaj7 chord diagramFmaj7Fmaj7
Waiting for a minute till the sun’s seen through my eyes
        D#m7 chord diagramD#m7D#m7-5           C#maj7 chord diagramC#maj7C#maj7
Make it down down, do-do-down
       Fm7 chord diagramFm7Fm7-5          D#m7 chord diagramD#m7D#m7
Make it do-down, du du du
 D#m7 chord diagramD#m7D#m7-5                                            Fmaj7 chord diagramFmaj7Fmaj7
Waiting for a minute till the sun’s seen through my eyes


Verse 2: 1:54
Fmaj7 chord diagramFmaj7Fmaj7
You know you need to get yourself to sleep and dream
     D#m7 chord diagramD#m7D#m7-5         C#maj7 chord diagramC#maj7C#maj7
And dream of you and I
           Fm7 chord diagramFm7Fm7-5                D#m7 chord diagramD#m7D#m7
There’s no need to keep an open eye
 D#m7 chord diagramD#m7D#m7-5
I promise I’m the one for you
                    G#m7 chord diagramG#m7G#m7-5         Fmaj7 chord diagramFmaj7Fmaj7
Just let me hold you in these arms tonight
Fmaj7 chord diagramFmaj7Fmaj7
I’m lucky to be near you
       D#m7 chord diagramD#m7D#m7-5         C#maj7 chord diagramC#maj7C#maj7
You can see it in my face
            Fm7 chord diagramFm7Fm7-5                      D#m7 chord diagramD#m7D#m7
But when I fucked my shit up too many times
           D#m7 chord diagramD#m7D#m7-5                        G#m7 chord diagramG#m7G#m7-5   Fmaj7 chord diagramFmaj7Fmaj7
Why would I let myself get down in the first place


Chorus 2: 2:23
Fmaj7 chord diagramFmaj7Fmaj7     D#m7 chord diagramD#m7D#m7-5           C#maj7 chord diagramC#maj7C#maj7
Trying to keep my mind at bay
 Fm7 chord diagramFm7Fm7-5                     D#m7 chord diagramD#m7D#m7
Sunflowers still grows at night
 D#m7 chord diagramD#m7D#m7-5                                   G#m7 chord diagramG#m7G#m7-5    Fmaj7 chord diagramFmaj7Fmaj7
Waiting for a minute till the sun’s seen through my eyes
        D#m7 chord diagramD#m7D#m7-5           C#maj7 chord diagramC#maj7C#maj7
Make it down down, do-do-down
       Fm7 chord diagramFm7Fm7-5          D#m7 chord diagramD#m7D#m7
Make it do-down, du du du
 D#m7 chord diagramD#m7D#m7-5                                            Fmaj7 chord diagramFmaj7Fmaj7
Waiting for a minute till the sun’s seen through my eyes


Bridge: 2:53-3:21

N.C.
And so she sat me down and told me that I didn’t have to cry
N.C.
Said I didn’t need to get down and feel empty inside
N.C.
And told me that she love me for as long as she’s alive
N.C.
And well, maybe she’s right, cause I hate it when I feel like I’m not me
N.C.
See, I honestly, don’t even know why
N.C.
I, I honestly don’t even know why


Chorus: 3:40
 Fmaj7 chord diagramFmaj7Fmaj7     D#m7 chord diagramD#m7D#m7-5           C#maj7 chord diagramC#maj7C#maj7
Trying to keep my mind at bay
 Fm7 chord diagramFm7Fm7-5                     D#m7 chord diagramD#m7D#m7
Sunflowers still grows at night
 D#m7 chord diagramD#m7D#m7-5                                   G#m7 chord diagramG#m7G#m7-5    Fmaj7 chord diagramFmaj7Fmaj7
Waiting for a minute till the sun’s seen through my eyes
        D#m7 chord diagramD#m7D#m7-5           C#maj7 chord diagramC#maj7C#maj7
Make it down down, do-do-down
       Fm7 chord diagramFm7Fm7-5          D#m7 chord diagramD#m7D#m7
Make it do-down, du du du
 D#m7 chord diagramD#m7D#m7-5                                            Fmaj7 chord diagramFmaj7Fmaj7
Waiting for a minute till the sun’s seen through my eyes

************************************

| x   Dead note
| (n) Ghost note

Other versions of Sunflower

Sunflower ukuleleChords

Almost there ...

Sign in to get your own page with links to favourite songs and more. You are just one click away...

Login with Facebook Login with Google