Guitar Tabs Explorer
Rex Orange County bass tabs for Sunflower

Sunflower bass tab


4.3 / 5 [3 votes]

Sunflower bass tab by Rex Orange County

Bass tabs

Print

Tuning: Standard (E A D G)

Difficulty: Novice

I don't wanna see you cry...:

G|--------11-----9-----6-6------4-------2-2-------------------------------|
D|------------------------------------------------------------------------|
A|---9~-----7~~----4~-------2~-----0~------------------------8-8----------| (2x)
E|-------------------------------------------------2-2-2------------------|

I let myself down (Pre-Chorus)

G|--------------------------------------|
D|--------------------------------------|
A|--------------------------------------|
E|--2-2-2-2-2-2-2-2-2-2-2-2-2-2/15------|

Chorus:

G|---------------------------------|
D|---------------------------------|
A|---------------------------------|
E|-2~------2-2--------2---2--------|

G|---------------------------------------2-2---2-2--------------------------------|
D|--------------------------------------------------------------------------------|
A|-7------7--4----4---4---4--2-----2-0--------------------------------------------|
E|----------------------------------------------------2-2-2-2-2-2/15-15-15-15\----|

G|---------------------------------|
D|---------------------------------|
A|---------------------------------|
E|-2~------2-2--------2---2--------|

G|---------------------------------------2-2---2-2--------------------------------|
D|--------------------------------------------------------------------------------|
A|-7------7--4----4---4---4--2-----2-0--------------------------------------------|
E|----------------------------------------------------2-2-2-2-2-2/15-15-15-15\----|

Verse 3:

G|--------11---9--9-----6-6--6-6----4---4-----2-2--2-2----------|
D|--------------------------------------------------------------|
A|---9~-----7---7-----4~----------2---2----0~-------------------| (2x)
E|-------------------------------------------------------2~-----|

Pre-Chorus:

G|--------------------------------------|
D|--------------------------------------|
A|--------------------------------------|
E|--2-2-2-2-2-2-2-2-2-2-2-2-2-2/15------|

Chorus:

G|---------------------------------|
D|---------------------------------|
A|---------------------------------|
E|-2~------2-2--------2---2--------|

G|---------------------------------------2-2---2-2-------------------------------|
D|-------------------------------------------------------------------------------|
A|-7------7--4----4---4---4--2-----2-0-------------------------------------------|
E|----------------------------------------------------2-2-2-2-2-2/15-15-15-15\---|

G|--------------------------------|
D|----4--------4-4-----4----4-----|
A|--------------------------------|
E|-2------2-2--------2---2--------|

G|----9--------6-----6-6-6---6-6-6-------4-------2-2----2-2------------------------------|
D|---------------------------------------------------------------------------------------|
A|-7------7--4---4-4-----------------2-----2-0-------------------------------------------|
E|----------------------------------------------------------2-2-2-2-2-2/15-15-15-15\-----|


Outro:

G|-----11~--------------------------14~-----|
D|-----9~~--------------------------12~-----|
A|------------------------------------------|
E|------------------------------------------|

(Final Chorus)

G|--------------------------------|
D|----4--------4-4-----4----4-----|
A|--------------------------------|
E|-2------2-2--------2---2--------|

G|----9--------6-6--6---6-------4----4------2-2----2-4-2-------------------------------|
D|-------------------------------------------------------------------------------------|
A|-7------7--4----4---4---4--2----2-----2-0--------------------------------------------|
E|-------------------------------------------------------------2-2-2-2-2/15-15-15-15---|


G|--------------------------------|
D|----4--------4-4-----4----4-----|
A|--------------------------------|
E|-2------2-2--------2---2--------|

G|----9--------6-6--6---6-------4----4------2-2----2-4-2---------------------|
D|---------------------------------------------------------------------------|
A|-7------7--4----4---4---4--2----2-----2-0----------------------------------|
E|-------------------------------------------------------------2~------------|



************************************

| h  Hammer-on
| p  Pull-off
| /  Slide up
| \  Slide down

************************************