GuitarTabsExplorer icon
GuitarTabsExplorer icon

Log in

Songbook

  • Log in to add and see bookmarks

Last visited songs

  • No songs visited yet...
Open A Window by Rex Orange County

Open A Window bass tab by Rex Orange County

Bass tabs

  • Difficulty: Intermediate
Intro:

G|--------------------------------------------------------------------------|
D|-0---0-0---7-0-----5------------2-3---------------7----7-----7------------|
A|-------------------------x-3--5-----3---------5-7--------------7\---------|
E|---------------3-----3-3--------------1-6-6-6-------5----5----------------|


G|--------------------------------------------------------------------------|
D|-0-0----------------------5--------2-3----------------------7----7--------|
A|-------------------------------3-------3----------------------------------|
E|-------0-2---0-2--0-3-3-----3------------1-6---6-6---6-0-5----5----5------|


Chorus:

G|--------------------------------------------------------------------------|
D|-0-5----------------------------------------------------------------------|
A|--------------------------------------------------7/12-9-5---9-9----0-2-0-|
E|-----3---5-----x-10--x-7-----0-1-2-3-0-3--5-5-----------------------------|
     Can I open a window?

G|--------------------------------------------------------------------------|
D|----------------------------------4-----4----5----7-7--7/9-5/7\4-0--------|
A|-----------------------0-2-5--5-2-----2---2-------------------------2-2-4-|
E|-0-2-3---5-5----0-2-3-----------------------------------------------------|


Verse :

G|--------------------------------------------------------------------------|
D|-0---0-0--0---0---5-------------2-3---------------7----7-----7------------|
A|------------0------------x-3--5-----3---------5-7--------------7\---------|
E|----------------3----3-3--------------1-6-6-6-------5----5----------------|
  Stuck here and I never seem to get away but I'll hang on

G|--------------------------------------------------------------------------|
D|-0-0----------------------5--------2-3----------------------7----7--------|
A|-------------------------------3-------3----------------------------------|
E|-------0-2---0-2--0-3-3-----3------------1-6---6-6---6-0-5----5----5------|


Chorus:

G|--------------------------------------------------------------------------|
D|-0-5----------------------------------------------------------------------|
A|--------------------------------------------------7/12-9-5---9-9----0-2-0-|
E|-----3---5-----x-10--x-7-----0-1-2-3-0-3--5-5-----------------------------|
     Can I open a window?

G|--------------------------------------------------------------------------|
D|----------------------------------4-----4----5----7-7--7/9-5/7\4-0--------|
A|-----------------------0-2-5--5-2-----2---2-------------------------2-2-4-|
E|-0-2-3---5-5----0-2-3-----------------------------------------------------|
Verse 2:

G|--------------------------------------------------------------------------|
D|-0---0-0--0---0---5-------------2-3---------------7----7-----7------------|
A|------------0------------x-3--5-----3---------5-7--------------7\---------|
E|----------------3----3-3--------------1-6-6-6-------5----5----------------|
  Fuck this
I might leave the people tellin' me what I should do

G|--------------------------------------------------------------------------|
D|-0-0----------------------5--------2-3----------------------7----7--------|
A|-------------------------------3-------3----------------------------------|
E|-------0-2---0-2--0-3-3-----3------------1-6---6-6---6-0-5----5----5------|


Chorus:

G|--------------------------------------------------------------------------|
D|-0-5----------------------------------------------------------------------|
A|---------------------------------------------------------------9----0-2-0-|
E|--------------------------------------------------------------------------|
     Could I open a window?

G|--------------------------------------------------------------------------|
D|----------------------------------4-----4----5----7-7--7/9-5/7\4-0--------|
A|-----------------------0-2-5--5-2-----2---2-------------------------2-2-4-|
E|-0-2-3---5-5----0-2-3-----------------------------------------------------|


Verse 3:

G|--------------------------------------------------------------------------|
D|-0---0-0--0---0---5-------------2-0---0-0--0---0---5----------------------|
A|------------0------------X-3--5--------------0----------------------------|
E|----------------3----3-3-------------------------3------------------------|
  Yeah, so what the fuck?

G|--------------------------------------------------------------------------|
D|-0---0-0--0---0---5-------------2-0---0-0--0---0---5----------------------|
A|------------0------------X-3--5--------------0----------------------------|
E|----------------3----3-3-------------------------3------------------------|

G|--------------------------------------------------------------------------|
D|--------------------------------------------------------------------4-----|
A|----------------2-4-5-4-5--------------------------7------------------0-0-|
E|-3------------------------------------------------------------------------|


Outro:

G|--------------------------------------------------------------------------|
D|----------------------------------4-----4----5----7-7--7/9-5/7\4----------|
A|-----------------------0-2-5--5-2-----2---2-----------------------0-5-x-x-|
E|-0-2-3---5-5----0-2-3-----------------------------------------------------|
  There's so many reasons   I can barely take it     anymore

G|--------------------------------3-----------------------------------------|
D|--------7-------5-------------3-------------------------------------------|
A|-5--------5-----------x-3/5\3---------------------0-3-4-5-2-0-------------|
E|------------3-----3-3-------------6--6-8-x--0-5-5-------------------------|

G|--------------------------------------------------------------------------|
D|-0--0---x-0---7-0--5------5----------------------------7------------------|
A|---------------------5-------------------------5-7------------------------|
E|-----------------------3----3---3-2-1--1-6-6-6-----5-5---5-5--------------|


************************************

| x  Dead note
| /  Slide up
| \  Slide down

************************************

[ Privacy | About us ]

Welcome to the guitar community

Why join and log in?
- Get songbook with favourite songs
- Get custom made front page
- Submit chords and tabs
- Submit guitar-cover videos
- Get a lot of thumbs up for your work

Songbook

Last visited songs

Site
Home
Search
Community
Submit chords

Video

No video for this page. Check out how you can submit guitar-cover videos here

Search tabs and chords

Browse by artist

A B C D E F G H I J K L M N O P Q R S T U V W X Y Z #


Menu

Search

Video

Bookmark

Login