Log in

One click and you are in

Login with Facebook Login with Google

Why sign up and log in

Guitar Tabs Explorer
Rex Orange County bass tabs for One in a million

One In A Million bass tab by Rex Orange County

Rex Orange County bass tabs for One in a million

Bass tabs

  • Difficulty: Beginner
Key: B


Chorus:

xxxxxxx
Pre-Chorus:

G|-------6-6----------------------------------4-4-------4-4------------------|
D|------------6-----4-4----------4------------------4------------------------|
A|4--x----------4------------------4----2-------------2---------------4-2-1-1|
E|-------------------------2-2--------2------------------------0-0-----------|

G|-----3-3-----3-----------8-8---3-----------1-1------------------------1----|
D|----------------1-1--x-----------1---------------1-------------------------|
A|-x---------1---------------------------------------1--------------------4-4|
E|-----------------------------------4-4---------------4-4----4-4-----4------|


Chorus:

G|-6-6---------------------------------4-4--------------------------------3-3-----3---------|
D|-------6---4-4-----------4-----------------4----2-2-------------------------------1-1-----|
A|---------4-----------------4--2-2------------2---------------4-2-1-1----------1-----------|
E|-----------------2-2-----------------------------------0-0--------------------------------|

G|8-8---3-----------1-1---------------1-1----1-------------------------------|
D|--------1---------------1--------------------------------------------------|
A|--------------------------1------------------4-----------------------------|
E|----------4-4---------------4-4----------4---------------------------------|


Chorus continued:



Verse :

G|-------6-6----------------------------------4-4-------4-4------------------|
D|------------6-----4-4----------4------------------4------------------------|
A|4--x----------4------------------4----2-------------2---------------4-2-1-1|
E|-------------------------2-2--------2------------------------0-0-----------|

G|-----3-3-----3-----------8-8---3-----------1-1------------------------1----|
D|----------------1-1--x-----------1---------------1-------------------------|
A|-x---------1---------------------------------------1--------------------4-4|
E|-----------------------------------4-4---------------4-4----4-4-----4------|


Pre-Chorus:

G|-------6-6----------------------------------4-4-------4-4------------------|
D|------------6-----4-4----------4------------------4------------------------|
A|4--x----------4------------------4----2-------------2---------------4-2-1-1|
E|-------------------------2-2--------2------------------------0-0-----------|

G|-----3-3-----3-----------8-8---3-----------1-1------------------------1----|
D|----------------1-1--x-----------1---------------1-------------------------|
A|-x---------1---------------------------------------1--------------------4-4|
E|-----------------------------------4-4---------------4-4----4-4-----4------|


Chorus:

G|-6-6---------------------------------4-4--------------------------------3-3-----3---------|
D|-------6---4-4-----------4-----------------4----2-2-------------------------------1-1-----|
A|---------4-----------------4--2-2------------2---------------4-2-1-1----------1-----------|
E|-----------------2-2-----------------------------------0-0--------------------------------|

G|8-8---3-----------1-1---------------1-1----1-------------------------------|
D|--------1---------------1--------------------------------------------------|
A|--------------------------1------------------4-----------------------------|
E|----------4-4---------------4-4----------4---------------------------------|


Chorus continued:

{END]

************************************

| x  Dead note
| g  Grace note
| (n) Ghost note
| h  Hammer-on
| p  Pull-off
| r  Release
| >  Accented note
| t  Tapping
| b  Bend
| br Bend release
| pb Pre-bend
| pbr Pre-bend release
| /  Slide up
| \  Slide down
| ~  Vibrato
| s  Slap
| P  Pop
| PM Palm mute
| TR Trill
| N  Tremolo

************************************
ⓘ Bass guitar tab for 'One In A Million' by Rex Orange County, a male indie pop artist from Grayshott,England. Rex Orange County was born in 1998.

Almost there ...

Sign in to get your own page with links to favourite songs and more. You are just one click away...

Login with Facebook Login with Google