Log in

One click and you are in

Login with Facebook Login with Google

Why sign up and log in

Guitar Tabs Explorer
Rex Orange County bass tabs for Nothing

Bass tabs

Intro:

G|---------------------------------------------------------------------------|
D|---------------------------------------------------------------------------|
A|-2----2-2---------------7-6-4-1-2------2---2----------4-7-4-1--------------|
D|----2---------2--0-------------------2---2---2--0--------------------------| x3

Hook 1:

"When we first spent the night "

G|---------------------------------------------------------------------------|
D|---------------------------------------------------------------------------|
A|-2----2-2---------------7-6-4-1-2------2---2----------4-7-4-1--------------|
D|----2---------2--0-------------------2---2---2--0--------------------------| x2


Chorus 1:

"And I could see "

G|-----------------9--8-6------------------|
D|-------9--8-6----------------------------|
A|-6---------------------------------------|
D|-----------------------------0-2-3-------|

(rest until )

"'Cause nothing "

G|---------------------------------------------------------------------------|
D|---------------------------------------------------------------------------|
A|-2----2-2---------------7-6-4-1-2------2---2----------4-7-4-1--------------|
D|----2---------2--0-------------------2---2---2--0--------------------------| x2

Hook 2 (same as first hook):

"When we first spent the night "

G|---------------------------------------------------------------------------|
D|---------------------------------------------------------------------------|
A|-2----2-2---------------7-6-4-1-2------2---2----------4-7-4-1--------------|
D|----2---------2--0-------------------2---2---2--0--------------------------| x2


Verse 1:

"Nothing seems to be as floral as you "

G|---------------------------------------------------------------------------|
D|---------------------------------------------------------------------------|
A|-2----2-2---------------7-6-4-1-2------2---2----------4-7-4-1--------------|
D|----2---------2--0-------------------2---2---2--0--------------------------| x2


Chorus 2:

"And I could see "

G|-----------------4--5--6-----------------|
D|-1-----4--5-6----------------------------|
A|-----------------------------------------|
D|-----------------------------0-2-3-------|

"'Cause I wish that I could grow up "

G|---------------------------------------------------------------------------|
D|---------------------------------------------------------------------------|
A|-2----2-2---------------7-6-4-1-2------2---2----------4-7-4-1--------------|
D|----2---------2--0-------------------2---2---2--0--------------------------| x3


Verse 2/Bridge():

"'Cause lately I've been missing you "

G|----------------------------------------------|
D|----------7-8----7----6------6--5--4----------|
A|--7--------------------------------------/8-8-|
D|-------7--------------------------------------|

"And I know you done missed me too "

G|---------------------------------------------------------|
D|----------7-8----7----6------6--5--4---------------------|
A|--7--------------------------------------/8-8---7--------|
D|-------7-------------------------------------------------|

"Couldn't you tell "

G|------------------------------------------------------------------8/9\8----|
D|--8--8-8--7--7-7---6--6-6---6--6-6--------------------------------------9--|
A|------------------------------------9--9-9---8--8-8---7------7-7-----------|
D|---------------------------------------------------------------------------|

G|---------------------------------------------------------------------------|
D|--8--8-8--7--7-7---6--6-6---6--6-6-----------------------------------------|
A|------------------------------------9--9-9---8--8-8---7--------------------|
D|---------------------------------------------------------------------------|


Outro (same as intro):

*come in at 4:28*

G|--------------------------------------------------------------|
D|--------------------------------------------------------------|
A|-2----2-2---------------7-6-4-1-2------2---2----------4-7-4-1-|
D|----2---------2--0-------------------2---2---2--0-------------| x2


☠☠☠☠☠☠☠☠☠☠☠☠☠☠☠☠☠☠☠☠☠☠☠☠☠☠☠☠☠☠☠☠☠☠☠☠

| /  Slide up
| \  Slide down

☠☠☠☠☠☠☠☠☠☠☠☠☠☠☠☠☠☠☠☠☠☠☠☠☠☠☠☠☠☠☠☠☠☠☠☠

Almost there ...

Sign in to get your own page with links to favourite songs and more. You are just one click away...

Login with Facebook Login with Google