Log in

One click and you are in

Login with Facebook Login with Google

Why sign up and log in

Guitar Tabs Explorer
Rex Orange County guitar tabs for Never had the balls

Guitar tabs

Tuning: Standard (E A D G B E)


solo - starts at 2:59

e|---------------------------------------------------------------------------|
B|-18-18-18-18-18-18----------------------18-18-18-18-18-18------------------|
G|--------------------17-17-17-17/19-17----------------------17-17-17--15-14-|
D|---------------------------------------------------------------------------|
A|---------------------------------------------------------------------------|
E|---------------------------------------------------------------------------|

e|---------------------------------------------------------------------------|
B|-------------------------------------------------18-18-18-18-18-18---------|
G|-14b15r14--12------------10-12-14--14b15r14--12--------------------17-17-17|
D|---------------10-10-10----------------------------------------------------|
A|---------------------------------------------------------------------------|
E|---------------------------------------------------------------------------|

e|---------------------------------------------------------------------------|
B|-------------18--17-15---17--15-13---15--13--------------------------------|
G|-17/19-17-------------------------------------14-15--15/17---17--15-14-----|
D|------------------------------------------------------------------------15~|
A|---------------------------------------------------------------------------|
E|---------------------------------------------------------------------------|


************************************

| /  Slide up
| r  Release
| b  Bend
| ~  Vibrato

************************************

Other versions of Never Had The Balls

Never had the ballsChords

↓ Add and view comments below ↓

What do you think about this song and these tabs?

Add your comments, questions, rant or a thumbs up below.

Almost there ...

Sign in to get your own page with links to favourite songs and more. You are just one click away...

Login with Facebook Login with Google