Never Enough  by Rex Orange County

Never Enough chords by Rex Orange County (Ver. 2)

Guitar chords with lyrics

Tuning: Standard (E A D G B E)

Key: E

Difficulty: Advanced

Intro:

e|----------|---------------|--------------|---------------|--------------|--------------|------------------|
B|----------|---------------|--------------|---------------|--------------|--------------|------------------|
G|----------|---------------|--------------|---------------|--------------|--------------|------------------|
D|----------|---------------|--------------|---------------|--------------|--------------|------------------|
A|----------|---------------|--------------|-4--4--4-4-4---|--------------|--------------|------------------|
E|-12-12-12-|-0--0--0-0-0-0-|--0--0-0-0-0--|-------------4-|--4--4--4-4-4/|/5--5--5-5-5-5|--5-5-5-5-5-4-3-2-|

e|--------------|---------------|-----------|------------|------------|----------|----------|
B|--------------|---------------|-----------|------------|------------|----------|----------|
G|--------------|---------------|-----------|------------|------------|----------|----------|
D|--------------|---------------|-----------|------------|------------|----------|----------|
A|--------------|-----------7-9-|-11--------|-------11-9-|-7-----7--6-|-------6--|-7--------|
E|---2-2--2-2-7-|--7--7-7-7-----|-----------|------------|------------|----------|----------|

e|------------------|----------------|------------|----------||
B|------------------|----------------|------------|----------||
G|------------------|----------------|------------|----------||
D|------------------|----------------|------------|----------||
A|--8b-8b-8b-7-7-7-7|-9--9--9-7-9-11-|--9--7---6--|-7--------||
E|------------------|----------------|------------|----------||


Verse 1:
      (E)
Now there's no one left to blame
  (C#7)        (G#7)
And your face stays the same
    (A)
You're ashamed to say you feel relieved
  (F#m)       (B7)
Stay away from your own family


Pre-Chorus:
  E
But years from now
       E  G#7 C#m7
If you could make them proud
     F#7
You could leave the world and feel like you've
B
Achieved the things you hoped to do, but
B7           Cdim7       C#m7
Honestly, I don't feel ordinary 'cause I haven't been at home in a while
D                    B
Tell them that it's only temporary, I'm trying my best to smile


Chorus:
         E
But that's never enough
        C#
'Cause when you lose the ones you love
     F#m       D7
You might find it hard to cry
        E         C#
Until it's only you and everybody else has left the room
     F#m          F7
You might feel what it's like to not know how to feel


Instrumental:

  E                   F#m    B7
e|-12---------12-|-12--11-11-11\9----9-|-9--------|-7--------||
B|---------------|---------------------|----------|----------||
G|--------13-----|----------------11---|----------|----------||
D|---------------|---------------------|----------|----------||
A|---------------|---------------------|-9--------|----------||
E|-12------------|---------------------|----------|-7--------||


Verse 2:
(P.M.)
E
You see, my old lady's old man just now left
      (C#m7)            (G#7)
And there's nothing I can say except this long awaited rest
  (A)
Is a good thing, and all good things must come to an end
  (F#m)               (B7)
It's right in front of me so there's no reason to pretend
           (E)
Except, I'm afraid to die
        (C#m7)     (G#7)        (A)
If this were a movie, you'd be taking our kids to school
                   (F#m)     (B7)
And I'd be Channing Tatum or somebody sexy, somebody cool


Pre-Chorus:
  E
But years from now
       E  G#7 C#m7
If you could make them proud
     F#7
You could leave the world and feel like you've
B
Achieved the things you hoped to do, but
B7           Cdim7       C#m7
Honestly, I don't feel ordinary 'cause I haven't left my house in a while
D                    B
Tell them that it's only temporary, I'm trying my best to smile


Chorus:
         E
But that's never enough
        C#
'Cause when you lose the ones you love
     F#m       D7
You might find it hard to cry
        E         C#
Until it's only you and everybody else has left the room
     F#m          F7
You might feel what it's like to not know how to feel


Solo:
 E           C#               F#m
e|-----------|---------|---------------|---------------|----------------|---------------------|
B|-----------|---------|---------------|---------------|----------------|---------------------|
G|-----------|---------|-13-----11--10-|------13-13-13-|-13b-----13--11-|---13-13-13-13-13-13-|
D|-14--------|---------|---------------|---------------|----------------|---------------------|
A|-----------|---------|---------------|---------------|----------------|---------------------|
E|-----------|---------|---------------|---------------|----------------|---------------------|

  D7                    E                  C#
e|----------------|-----------------------|------------------|----------------|----------------|
B|----------------|-----------------------|------------------|-14--12--14b----|-15b------14-12-|
G|-13b-----13--11-|-----------------------|------------13-16-|----------------|----------------|
D|----------------|--14-16-14-16-14-16-14-|-16b-----16-------|----------------|----------------|
A|----------------|-----------------------|------------------|----------------|----------------|
E|----------------|-----------------------|------------------|----------------|----------------|

          F#m                 F7
e|----------------|----------------|------------------|-----------------------|--------------||
B|----------------|----------------|------------------|-----------------------|--------------||
G|---------11-13--|-13b----13---11-|---13-13-13-11-9--|-14-14-14-14-14-16-17b-|-(17b)--------||
D|----------------|----------------|------------------|-----------------------|--------------||
A|----------------|----------------|------------------|-----------------------|--------------||
E|----------------|----------------|------------------|-----------------------|--------------||


Breakdown:
E
Don't tell me you're sorry
      C#m7     G#7
You're just sorry for yourself
   A
And though you may seem fine alone
   F#m          B7
Well I could be the one to help

  E
No, don't tell me you're sorry
      C#m7     G#7
You're just sorry for yourself
   A
And though you may seem fine alone
F#m          B7
I wanna be the one to help

  E
No, don't tell me you're sorry
      C#m7     G#7
You're just sorry for yourself
   A
And though you may seem fine alone
F#m          B7
I wanna be the one to help

E
Don't tell me you're sorry
      C#m7     G#7
You're just sorry for yourself
   A
And though you may seem fine alone
F#m          B7
I wanna be the one to help

E
Don't tell me you're sorry
      C#m7     G#7
You're just sorry for yourself
   A
And though you may seem fine alone
F#m          B7
I wanna be the one to help

E
Don't tell me you're sorry
      C#m7     G#7
You're just sorry for yourself
   A
And though you may seem fine alone
F#m           B7
I hope to be the one to help


Outro:
E


************************************

| (n) Ghost note
| b  Bend
| /  Slide up
| \  Slide down
| P.M. Palm mute

************************************

Other versions of Never Enough

Alternative guitar chords and tabs for Never Enough by Rex Orange County

Find guitar tabs and chords

A B C D E F G H I J K L M N O P Q R S T U V W X Y Z #