Log in

One click and you are in

Login with Facebook Login with Google

Why sign up and log in

Guitar Tabs Explorer
Rex Orange County bass tabs for Loving is easy

Loving Is Easy bass tab by Rex Orange County

Rex Orange County bass tabs for Loving is easy

Bass tabs

Tuning: Standard (E A D G)


Intro:

G|--------------8----/10----12---------------8h10----8-----------------------12--12----|
D|---------8--------------------------10------------------10----------12---------------|
A|----6--------------------------8------------------------------10---------------------|
E|-------------------------------------------------------------------------------------|

G|-------------------------------------------------8----7--------------------10/12-----|
D|-------------------8------------------------8--------------8---------10--------------|
A|------------------------8--------------6------------------------8--------------------|
E|----6--6----6h8--------------6-------------------------------------------------------|

G|----------------10-------------------------------------------------------------------|
D|----------12----------12-------------------------------------------------------------|
A|----10----------------------8--------------------------------------------------------|
E|---------------------------------6--6------------------------------------------------|


Chorus #1: x2

G|--------------8----/10----12---------------8h10----8-----------------------12--12--|
D|---------8--------------------------10------------------10----------12-------------|
A|----6--------------------------8------------------------------10-------------------|
E|-----------------------------------------------------------------------------------|

G|-----------------------------------------------------------------------------------|
D|-------------------8---------------------------------------------------------------|
A|------------------------8----------------------------------------------------------|
E|----6--6----6h8--------------6-----------------------------------------------------|

Pre-Chorus #1:

G|--------------------------------------------------------------------------------------------|
D|--------------6/8----6---------5--5------------------------6/8----6---------5--5------------|
A|---------6-----------------------------5--------------6-----------------------------5-------|
E|----4---------------------3-----------------3----4---------------------3-----------------3--|


G|--------------------------------------------------------------------------------------------|
D|--------------6/8----6---------5--5------------------------4/6----4---------3--3------------|
A|---------6-----------------------------5--------------4-----------------------------3-------|
E|----4---------------------3-----------------3----2---------------------1-----------------5--|

G|--------------------------------------------------------------------------------------------|
D|---------8--8----------------------8--8--8--8-----------------------------------------------|
A|-----------------8--------------------------------------------------------------------------|
E|----6-----------------8----6--6-------------------------------------------------------------|


Chorus #2: (repeat intro)

G|--------------8----/10----12---------------8h10----8-----------------------12--12----|
D|---------8--------------------------10------------------10----------12---------------|
A|----6--------------------------8------------------------------10---------------------|
E|-------------------------------------------------------------------------------------|

G|-------------------------------------------------8----7--------------------10/12-----|
D|-------------------8------------------------8--------------8---------10--------------|
A|------------------------8--------------6------------------------8--------------------|
E|----6--6----6h8--------------6-------------------------------------------------------|

G|----------------10-------------------------------------------------------------------|
D|----------12----------12-------------------------------------------------------------|
A|----10----------------------8--------------------------------------------------------|
E|---------------------------------6--6------------------------------------------------|


Bridge: (repeat intro)

G|--------------8----/10----12---------------8h10----8-----------------------12--12----|
D|---------8--------------------------10------------------10----------12---------------|
A|----6--------------------------8------------------------------10---------------------|
E|-------------------------------------------------------------------------------------|

G|-------------------------------------------------8----7--------------------10/12-----|
D|-------------------8------------------------8--------------8---------10--------------|
A|------------------------8--------------6------------------------8--------------------|
E|----6--6----6h8--------------6-------------------------------------------------------|

G|----------------10-------------------------------------------------------------------|
D|----------12----------12-------------------------------------------------------------|
A|----10----------------------8--------------------------------------------------------|
E|---------------------------------6--6------------------------------------------------|


Pre Chorus # 2: (rest for 6 measures)

G|-----------------------------------------------|
D|-----------------------------------------------|
A|-----------------------------------------------|
E|-----------------------------------------------|

G|-----------------------------------------------|
D|--------------4/6----4---------3--3------------|
A|---------4-----------------------------3-------|
E|----2---------------------1-----------------5--|

G|-----------------------------------------------|
D|---------8--8----------------------8--8--8--8--|
A|-----------------8-----------------------------|
E|----6-----------------8----6--6----------------|



Chorus #3/Outro: x2 (repeat 1st chorus)

G|--------------8----/10----12---------------8h10----8-----------------------12--12--|
D|---------8--------------------------10------------------10----------12-------------|
A|----6--------------------------8------------------------------10-------------------|
E|-----------------------------------------------------------------------------------|

G|-----------------------------------------------------------------------------------|
D|-------------------8---------------------------------------------------------------|
A|------------------------8----------------------------------------------------------|
E|----6--6----6h8--------------6-----------------------------------------------------|



note: Some hammer-ons aren't played in live versions and can be replaced by slides.


************************************

| h Hammer-on
| / Slide up

************************************

Almost there ...

Sign in to get your own page with links to favourite songs and more. You are just one click away...

Login with Facebook Login with Google