Keep It Up by Rex Orange County

Keep It Up bass tab by Rex Orange County

Bass tabs

🎸 Intro:

Verse :

G|---------5---------------------------3-------------------|\
D|-6---6-6---8---5---5-5---0-5-3---3-3---3-------------5-6-| \
A|-----------------------------------------5-6---6-6-------| \
E|---------------------------------------------------------|  \
                                2x
G|-----------------------------------------------------|    /
D|-------------------------------------------------4-5-|   /
A|-4---4-4---6-4-3---------4---------7---6---6-6-------|   /
E|-------------------4-4-----4-6---6-------------------|  /



🎸 Chorus:

*no bass first four bars

G|---------5---------------------------3-------------------|
D|-6---6-6---8---5---5-5---0-5-3---3-3---3-------------5-6-|
A|-----------------------------------------5-6---6-6-------|
E|---------------------------------------------------------|

G|-----------------------------------------------------|
D|-------------------------------------------------4-5-|
A|-4---4-4---6-4-3---------4---------7---6---6-6-------|
E|-------------------4-4-----4-6---6-------------------|



🎸 Verse :

G|---------5---------------------------3-------------------|\
D|-6---6-6---8---5---5-5---0-5-3---3-3---3-------------5-6-| \
A|-----------------------------------------5-6---6-6-------| \
E|---------------------------------------------------------|  \
                                2x
G|-----------------------------------------------------|    /
D|-------------------------------------------------4-5-|   /
A|-4---4-4---6-4-3---------4---------7---6---6-6-------|   /
E|-------------------4-4-----4-6---6-------------------|  /

🎸 Chorus:

G|---------5---------------------------3-------------------|\
D|-6---6-6---8---5---5-5---0-5-3---3-3---3-------------5-6-| \
A|-----------------------------------------5-6---6-6-------| \
E|---------------------------------------------------------|  \
                                2x
G|-----------------------------------------------------|    /
D|-------------------------------------------------4-5-|   /
A|-4---4-4---6-4-3---------4---------7---6---6-6-------|   /
E|-------------------4-4-----4-6---6-------------------|  /

🎸 Bridge:

*no bass

🎸 Chorus:

*no bass first four bars

G|---------5---------------------------3-------------------|\
D|-6---6-6---8---5---5-5---0-5-3---3-3---3-------------5-6-| \
A|-----------------------------------------5-6---6-6-------| \
E|---------------------------------------------------------|  \
                                2x
G|-----------------------------------------------------|    /
D|-------------------------------------------------4-5-|   /
A|-4---4-4---6-4-3---------4---------7---6---6-6-------|   /
E|-------------------4-4-----4-6---6-------------------|  /



*no bass

Find guitar tabs and chords

A B C D E F G H I J K L M N O P Q R S T U V W X Y Z #