Log in

One click and you are in

Login with Facebook Login with Google

Why sign up and log in

Guitar Tabs Explorer
Rex Orange County guitar chords for Corduroy dreams ukulele

Corduroy Dreams Ukulele chords by Rex Orange County

Rex Orange County guitar chords for Corduroy dreams ukulele

Guitar chords with lyrics

Intro:
 Emaj7      Emaj7  Fdim7  B7/F#  B7b13  Emaj7  Fdim7  B7/F#  B7b13
 1 + 2 + 3 + 4 + 1 + 2 + 3 + 4 + 1 + 2 + 3 + 4 + 1 + 2 + 3 + 4 + 1 + 2 + 3 + 4 +
A|---------------|--6-x-0---5-x--|--6-x-0---6----|--6-x-0---5-x--|--6-x-0---6----|
E|---------------|--4-x-----4-x--|--5-x-----5----|--4-x-----4-x--|--5-x-----5----|
C|4--------------|4---x---5---x-5/6---x-----7----|4---x---5---x-5/6---x-----7----|
G|---------------|--4-x-----4-x--|--4-x---4------|--4-x-----4-x--|--4-x---4------|

 Emaj7  Fdim7  B7/F#  B7b13  Emaj7  Fdim7  B7/F#  B7b13
 1 + 2 + 3 + 4 + 1 + 2 + 3 + 4 + 1 + 2 + 3 + 4 + 1 + 2 + 3 + 4 +
A|--6-x-0---5-x--|--6-x-0---6----|--6-x-0---5-x--|--6-x-------x--|
E|--4-x-----4-x--|--5-x-----5----|--4-x-----4-x--|--5-x---4---x--|
C|4---x---5---x-5/6---x-----7----|4---x---5---x-5/6---x-------x--|
G|--4-x-----4-x--|--4-x---4------|--4-x-----4-x--|--4-x-------x--|

Verse 1:
 Emaj7  Fdim7  B7/F#  B7b13  Emaj7  Fdim7  B7/F#  B7b13
 1 + 2 + 3 + 4 + 1 + 2 + 3 + 4 + 1 + 2 + 3 + 4 + 1 + 2 + 3 + 4 +
A|--6-x-0---5-x--|--6-x-0---6----|--6-x-0---5-x--|--6-x---6---x--|
E|--4-x-----4-x--|--5-x-----5----|--4-x-----4-x--|--5-x---5---x--|
C|4---x---5---x-5/6---x-----7----|4---x---5---x-5/6---x---7---x--|
G|--4-x-----4-x--|--4-x---4------|--4-x-----4-x--|--4-x---4---x--|
 How could I ignore you? Trust me I adore you. We're swimming through our dreams.

 Emaj7  Fdim7  B7/F#  B7b13  Emaj7  Fdim7  B7/F#  B7b13
 1 + 2 + 3 + 4 + 1 + 2 + 3 + 4 + 1 + 2 + 3 + 4 + 1 + 2 + 3 + 4 +
A|--6-x-0---5-x--|--6-x-0---6----|--6-x-0---5-x--|6---x---6---x--|
E|--4-x-----4-x--|--5-x-----5----|--4-x-----4-x--|5-5-x---5---x--|
C|4---x---5---x-5/6---x-----7----|4---x---5---x-5/6---x---7---x--|
G|--4-x-----4-x--|--4-x---4------|--4-x-----4-x--|4---x---4---x--|
 Kiss me in the shower for a couple hours, though we're only sixteen.

Pre-Chorus:
 Emaj7  Fdim7  B7/F#  B7b13  Emaj7  Fdim7  B7/F#  B7b13
 1 + 2 + 3 + 4 + 1 + 2 + 3 + 4 + 1 + 2 + 3 + 4 + 1 + 2 + 3 + 4 +
A|6---6---5---5--|6---6-----6----|--6-x-0---5-x--|--6-x---6---x--|
E|4---4---4---4--|5---5-----5----|--4-x-----4-x--|--5-x---5---x--|
C|4---4---5---5--|6---6-----7----|4---x---5---x-5/6---x---7---x--|
G|4---4---4---4--|4---4---4-----4|--4-x-----4-x--|--4-x---4---x--|
 And sit down beside me, don't call me daddy, 'cause that's just f**kin' weird.

 Emaj7  Fdim7  B7/F#  B7b13  Emaj7  Fdim7  B7/F#  B7b13
 1 + 2 + 3 + 4 + 1 + 2 + 3 + 4 + 1 + 2 + 3 + 4 + 1 + 2 + 3 + 4 +
A|--6-x-0---5-x--|--6-x-0---6----|--6-x-0---5-x--|6---x---6---x--|
E|--4-x-----4-x--|--5-x-----5----|--4-x-----4-x--|5-5-x---5---x--|
C|4---x---5---x-5/6---x-----7----|4---x---5---x-5/6---x---7---x--|
G|--4-x-----4-x--|--4-x---4------|--4-x-----4-x--|4---x---4---x--|
 Promise that you'll stay here, you and I can lay here until the end of time.


Chorus:
 Emaj7            D#* Dmaj7
 1 + 2 + 3 + 4 + 1 + 2 + 3 + 4 + 1 + 2 + 3 + 4 + 1 + 2 + 3 + 4 +
A|6--------------|------------5--|--4-x-------4--|----4-------x--|
E|4--------------|------------3--|--2-x-------2--|----2-------x--|
C|4--------------|------------3--|2---x-2--------|2-----------x--|
G|4--------------|------------3--|--2-x-------2--|--2---------x--|
 But girl, don't you worry 'bout me.

 Amaj7              Cmaj7            C#maj7
 1 + 2 + 3 + 4 + 1 + 2 + 3 + 4 + 1 + 2 + 3 + 4 + 1 + 2 + 3 + 4 +
A|--0-x-----0-x--|0---x-----0-x--|2---x-----2-x--|--2-x---2---3--|
E|--0-x-----0-x--|0---x-----0-x--|0---x-----0-x--|0---x---0---1--|
C|1---x-1-----x-0h1---x-1-----x--|0---x-0-----x--0----x---0---1--|
G|--1-x-----1-x-0h1---x-----1-x--|0---x-----0-x--|-0--x---0---1--|
 It ain't new to me, feeling this lonely, darling.

 Dmaj7 Emaj7         D#* Dmaj7
 1 + 2 + 3 + 4 + 1 + 2 + 3 + 4 + 1 + 2 + 3 + 4 + 1 + 2 + 3 + 4 +
A|4---6---x-6---6|----x---6---5--|4---x-----4-x--|4-----------x--|
E|2---4---x-4---4|----x---4---3--|2---x-----2-x--|2-----------x--|
C|2---4---x-4---4|----x---4---3--|2---x-2-----x--|2-----------x--|
G|2---4---x-4---4|----x---4---3--|2---x-----2-x--|2-----------x--|
 Girl, don't worry 'bout me.

 Emaj7   D#* Dmaj7       B7/F#          B7
 1 + 2 + 3 + 4 + 1 + 2 + 3 + 4 + 1 + 2 + 3 + 4 + 1 + 2 + 3 + 4 +
A|6---------5---4|------------x--|------------6--|----x---6---x--|
E|4-----4---3---2|------------x--|------5-------3h4---x---5---x--|
C|4---------3---2|------------x--|---------------|----x---6---x--|
G|4---------3---2|------------x--|4--------------|----x---4---x--|
 But if you're ever unhappy, then maybe, baby, I must let you go.


Bridge:
 Emaj7  Fdim7  B7/F#  B7b13  Emaj7  Fdim7  B7/F#  B7b13
 1 + 2 + 3 + 4 + 1 + 2 + 3 + 4 + 1 + 2 + 3 + 4 + 1 + 2 + 3 + 4 +
A|--6-x-0---5-x--|--6-x-0---6----|--6-x-0---5-x--|--6-x-------x--|
E|--4-x-----4-x--|--5-x-----5----|--4-x-----4-x--|--5-x---4---x--|
C|4---x---5---x-5/6---x-----7----|4---x---5---x-5/6---x-------x--|
G|--4-x-----4-x--|--4-x---4------|--4-x-----4-x--|--4-x-------x--|
 Let you go.


Verse 2:
 Emaj7  Fdim7  B7/F#  B7b13  Emaj7  Fdim7  B7/F#  B7b13
 1 + 2 + 3 + 4 + 1 + 2 + 3 + 4 + 1 + 2 + 3 + 4 + 1 + 2 + 3 + 4 +
A|--6-x-0---5-x--|--6-x-0---6----|--6-x-0---5-x--|--6-----6---x--|
E|--4-x-----4-x--|--5-x-----5----|--4-x-----4-x--|--5-----5---x--|
C|4---x---5---x-5/6---x-----7----|4---x---5---x-5/6-------7---x--|
G|--4-x-----4-x--|--4-x---4------|--4-x-----4-x--|--4-----4---x--|
 Baby, now it's best here to lay me down and rest here. Let's dream of corduroy.

 Emaj7  Fdim7  B7/F#  B7b13  Emaj7  Fdim7  B7/F#  B7b13
 1 + 2 + 3 + 4 + 1 + 2 + 3 + 4 + 1 + 2 + 3 + 4 + 1 + 2 + 3 + 4 +
A|--6-x-0---5-x--|--6-x-0---6----|--6-x-0---5-x--|6---x---6---x--|
E|--4-x-----4-x--|--5-x-----5----|--4-x-----4-x--|5-5-x---5---x--|
C|4---x---5---x-5/6---x-----7----|4---x---5---x-5/6---x---7---x--|
G|--4-x-----4-x--|--4-x---4-----4|--4-x-----4-x--|4---x---4---x--|
 Work for what you love to do and I will watch right over you, with your heart I'll never toy.


Pre-Chorus:
 Emaj7  Fdim7  B7/F#  B7b13  Emaj7  Fdim7  B7/F#  B7b13
 1 + 2 + 3 + 4 + 1 + 2 + 3 + 4 + 1 + 2 + 3 + 4 + 1 + 2 + 3 + 4 +
A|6---6---5---5--|6---6-----6----|--6-x-0---5-x--|--6-x-0---6----|
E|4---4---4---4--|5---5-----5----|--4-x-----4-x--|--5-x-----5----|
C|4---4---5---5--|6---6-----7----|4---x---5---x-5/6---x-----7----|
G|4---4---4---4--|4---4---4-----4|--4-x-----4-x--|--4-x---4------|
 And you're the other half of me, drink and sleep and laugh with me, take me from myself.

 Emaj7  Fdim7  B7/F#  B7b13  Emaj7  Fdim7  B7/F#  B7b13
 1 + 2 + 3 + 4 + 1 + 2 + 3 + 4 + 1 + 2 + 3 + 4 + 1 + 2 + 3 + 4 +
A|--6-x-0---5-x--|--6-x-0---6----|--6-x-0---5-x--|6---x---6---x--|
E|--4-x-----4-x--|--5-x-----5----|--4-x-----4-x--|5-5-x---5---x--|
C|4---x---5---x-5/6---x-----7----|4---x---5---x-5/6---x---7---x--|
G|--4-x-----4-x--|--4-x---4------|--4-x-----4-x--|4---x---4---x--|
 See, I'm a f**king basketcase until I'm able to see your face. You saved me from myself.


Chorus:
 Emaj7            D#* Dmaj7
 1 + 2 + 3 + 4 + 1 + 2 + 3 + 4 + 1 + 2 + 3 + 4 + 1 + 2 + 3 + 4 +
A|6--------------|--------6---5--|--4-x-------4--|----4-------x--|
E|4--------------|--------4---3--|--2-x-------2--|----2-------x--|
C|4--------------|--------4---3--|2---x-2--------|2-----------x--|
G|4--------------|--------4---3--|--2-x-------2--|--2---------x--|
 But girl, don't worry 'bout me.

 Amaj7              Cmaj7            C#maj7
 1 + 2 + 3 + 4 + 1 + 2 + 3 + 4 + 1 + 2 + 3 + 4 + 1 + 2 + 3 + 4 +
A|--0-x-----0-x--|0---x-----0-x--|2---x-----2-x--|--2-x---2---3--|
E|--0-x-----0-x--|0---x-----0-x--|0---x-----0-x--|0---x---0---1--|
C|1---x-1-----x-0h1---x-1-----x--|0---x-0-----x--0----x---0---1--|
G|--1-x-----1-x-0h1---x-----1-x--|0---x-----0-x--|-0--x---0---1--|
 'Cause it ain't new to me, feeling this lonely, darling.

 Dmaj7 Emaj7         D#* Dmaj7
 1 + 2 + 3 + 4 + 1 + 2 + 3 + 4 + 1 + 2 + 3 + 4 + 1 + 2 + 3 + 4 +
A|4---6---x-6---6|----x---6---5--|4---x-----4-x--|4-----------x--|
E|2---4---x-4---4|----x---4---3--|2---x-----2-x--|2-----------x--|
C|2---4---x-4---4|----x---4---3--|2---x-2-----x--|2-----------x--|
G|2---4---x-4---4|----x---4---3--|2---x-----2-x--|2-----------x--|
 Baby, girl, don't worry 'bout me.

 Emaj7   D#* Dmaj7       Emaj7   D#*  Dmaj7
 1 + 2 + 3 + 4 + 1 + 2 + 3 + 4 + 1 + 2 + 3 + 4 + 1 + 2 + 3 + 4 +
A|6-----6---5---4|------------x--|6---x-6---5----|4-----------x--|
E|4-----4---3---2|------------x--|4---x-4---3----|2-----------x--|
C|4-----4---3---2|------------x--|4---x-4---3----|2-----------x--|
G|4-----4---3---2|------------x--|4---x-4---3----|2-----------x--|
 'Cause if you're ever unhappy, if you're ever unhappy,

 Emaj7    D#* Dmaj7      Emaj7      B7
 1 + 2 + 3 + 4 + 1 + 2 + 3 + 4 + 1 + 2 + 3 + 4 + 1 + 2 + 3 + 4 + 1 + 2 + 3 + 4 +
A|6-------6---5--|4--------------|------------6--|6--------------|x---2---4---6--|
E|4-------4---3--|2--------------|------------4--|5--------------|x--------------|
C|4-------4---3--|2--------------|------------4--|6--------------|x--------------|
G|4-------4---3--|2--------------|4-----------4--|4--------------|x--------------|
 If you're ever, ever unhappy, then maybe, maybe baby I must let you go.


Outro:
 Emaj7  Fdim7  B7/F#  B7b13  Emaj7  Fdim7  B7/F#  B7b13
 1 + 2 + 3 + 4 + 1 + 2 + 3 + 4 + 1 + 2 + 3 + 4 + 1 + 2 + 3 + 4 +
A|--6-x-0---5-x--|--6-x-0---6----|--6-x-0---5-x--|--6-x-0---6----|
E|--4-x-----4-x--|--5-x-----5----|--4-x-----4-x--|--5-x-----5----|
C|4---x---5---x-5/6---x-----7----|4---x---5---x-5/6---x-----7----|
G|--4-x-----4-x--|--4-x---4------|--4-x-----4-x--|--4-x---4------|
 (Whistling)

 Emaj7  Fdim7  B7/F#  B7b13  Emaj7  Fdim7  B7/F#  B7b13
 1 + 2 + 3 + 4 + 1 + 2 + 3 + 4 + 1 + 2 + 3 + 4 + 1 + 2 + 3 + 4 +
A|--6-x-0---5-x--|--6-x-0---6-x--|--6-x---5---x--|6-----------x--|
E|--4-x-----4-x--|--5-x-----5-x--|--4-x---4-4-x--|5---5---4---x--|
C|4---x---5---x-5/6---x-----7-x--|4---x---5---x--|6-----------x--|
G|--4-x-----4-x--|--4-x---4---x--|--4-x---4---x--|4-----------x--|
 (Whistling)

 B7       Emaj7
 1 + 2 + 3 + 4 + 1 + 2 + 3 + 4 + 1 + 2 + 3 + 4 +
A|6--------------|---------------|--------x------|
E|5--------------|---------------|--------x------|
C|6--------------|4--------------|--------x------|
G|4--4--------4--|---------------|--------x------|

Almost there ...

Sign in to get your own page with links to favourite songs and more. You are just one click away...

Login with Facebook Login with Google