Log in

One click and you are in

Login with Facebook Login with Google

Why sign up and log in

Guitar Tabs Explorer
Rex Orange County guitar chords for Apricot princess ukulele

Apricot Princess Ukulele chords by Rex Orange County

Rex Orange County guitar chords for Apricot princess ukulele

Guitar chords with lyrics

Tuning: G C E A (G C E A)

Please use these chords this way:
 F# Eb F#m B Bb Dbm Gmaj7
A|-1--1--0--2--1--4----2--------------------------|
E|-2--3--2--2--1--4----2--------------------------|
C|-1--3--1--3--2--4----2--------------------------|
G|-3--0--2--4--3--6----0--------------------------|

* means strum once
Intro:
A|-------3-|-----1-|-0--0--0-|-----3-|-----1-|-----0-------|--------|
E|----2--2-|---3-3-|-0--1--2-|---2-2-|---3-3-|---0---0-0-0-|-1---1--|
C|--2----2-|-2---2-|-1--2--2-|-2---2-|-2---2-|-1---------1-|-2-2-0--|
G|-------2-|-------|-2--2--2-|-----2-|-------|-------------|--------|

A|-0--1--0--0--0--1--0--0--0--|
E|-2--3--0--1--2--2--0--1--2--|
C|-2--2--1--2--2--3--1--2--2--|
G|-2--0--0--2--2--0--0--2--2--|


Verse 1:
G
You can never do wrong
A7      D        F#m
It's me that makes the evening long
 Gmaj7  A7          D Eb7
And I hope you believe me when I say
Em7         A7
That I don't see any other
D                  F#m B
Yeah, you're the only one to meet my mother
Em7              A7      D
And it shows she loves the way you love me, so
Em       Em7  A7          D
Yes, I know she loves the way you love me, girl

Verse 2:
Gm  A7     D
But I wanna show them
Gm      A   D
How much I need her, I'm in this place again
Gm      A7     D
Yeah, I wanna show oooh them
Gm        A7    D
That this ain't a fantasy, she's my best fucking friend
Bb     A      G     F
And I wanna show, I wanna show her the world
Bb    A   G     F
I need to know, she's down to go
  Bb    A7  Gm   F
And I wanna show, I wanna show her the world
  Bb     A     Gm    Dbm* C* F*
But I need to know that I'm not a aaa-ah-ah
Dbm* C* F*  Dbm* C* F*
I'm not alone, oh
Dbm* C*  Bb*  A*
I'm not alone


Chorus:
Bb   A
Tah-dah-tah-dah
G     F
Tah-dah-tahdah-tahdah
Bb   A
Bum-buh-buh-bumh
G     F
Bum-buh-bumbuh-buh-dum
Bb   A
Bum-buh-buh-bumh
G    F*
Buh-bum-buh


Verse 3:
Bb   A       G         F
I said, I wanna know, know, know, know, know
     Bb    A      Gm  F
Said that I need to show, wanna show her the world
  Bb    A     Gm     F
And I need to know that she's down to go
  Bb   A     Gm  F
And I wanna know that she's not alone
  Bb A    Gm F     Bb   A
And I'm not, no I'm not alone, I'm not alone
G    F
No, I'm not alone
Bb   A     G    F
I wanna know, said show her the world
  Bb   A    Gm    F
And I need to know, na, na, know

Almost there ...

Sign in to get your own page with links to favourite songs and more. You are just one click away...

Login with Facebook Login with Google