4 Seasons by Rex Orange County

4 Seasons tab by Rex Orange County

Guitar tabs

Tuning: Standard (E A D G B E)

🎸 Intro:

e|-8---7--8--7------8----8------7----7-----|
B|-8------------8---9----9------9----9-----|
G|-9----------------10---10-----8----8-----|
D|-10---------------10---10-----9----9-----|
A|-10---------------8----8------7----7-----|
E|-8---------------------------------------|


e|----8---------8----7---7---8-----8-------|
B|----10-----8-------9---9---10----10------|
G|----9--------------8---8---9-----9-------|
D|----10-------------9---9---10----10------|
A|----8--------------7---7---8-----8-------|
E|-----------------------------------------|

Other versions of 4 Seasons

Alternative guitar chords and tabs for 4 Seasons by Rex Orange County

Find guitar tabs and chords

A B C D E F G H I J K L M N O P Q R S T U V W X Y Z #