Log in

One click and you are in

Login with Facebook Login with Google

Why sign up and log in

Guitar Tabs Explorer
Rex Orange County bass tabs for 4 seasons

Bass tabs

Intro (0:00-1:38):
Bass comes in at 1:08
G|----------------|----------------|----------------|----------------|
D|----------------|----------------|----------------|----------------|
A|----------------|6~--------------|----------------|6~--------------|
E|--------------6-|----------------|6~--------------|------------8---|
 i  i  i  i  i  i  i  i  i  i  i  i  i  i  i  i

G|----------------|----------------|----------------|----------------|
D|----------------|----------------|----------------|----------------|
A|----------------|6~--------------|----------------|6~------6~------|
E|6~------------6-|--------------8-|6~------------6-|----------------|
 i  i  i  i  i  i  i  i  i  i  i  i  i  i  i  i

G|----------------|----------------|
D|----------------|----------------|
A|5~--------------|----------------|
E|----------------|----------------|
 i  i  i  i  i  i  i  i


Verse 1 (1:39-2:39):
Bass comes in at 1:54
G|----------------|----------------|----------------|----------------|
D|----------------|5~--------------|----------------|------------5---|
A|--------------5-|----------------|6~--------------|----------6---5-|
E|3~--------------|----------------|----------------|--------7-------|
 i  i  i  i  i  i  i  i  i  i  i  i  i  i  i  i

G|----------------|----------------|----------------|----------------|
D|----------------|----------------|----------------|----------------|
A|7~--------------|----------------|----------------|----4---5-------|
E|--------0~------|----------------|7~--------------|7-----------5---|
 i  i  i  i  i  i  i  i  i  i  i  i  i  i  i  i

G|----------------|----------------|----------------|----------------|
D|----------------|5~--------------|----------------|----------------|
A|--------------5-|--------------5-|6~------------5-|--------------6-|
E|3~--------------|----------------|----------------|7~----------7---|
 i  i  i  i  i  i  i  i  i  i  i  i  i  i  i  i

G|----------------|----------------|----------------|----------------|
D|----------------|----------------|----------------|----------------|
A|7~--------------|7---7~----------|----------------|----4---5---7---|
E|--------0~----0-|--0-------------|7~------------6-|7---------------|
 i  i  i  i  i  i  i  i  i  i  i  i  i  i  i  i

G|----------------|----------------|----------------|----------------|
D|5~--------------|5~----------5---|----------------|----------------|
A|------5-------5-|--------------5-|6~----------6-4-|----5~------9---|
E|--------3~------|----------7-----|----------------|7~--------------|
 i  i  i  i  i  i  i  i  i  i  i  i  i  i  i  i

G|----------------|----------------|----------------|----------------|
D|----------------|----------------|----------------|----------------|
A|7~--------------|7---7~----------|----------------|----------------|
E|--------0~----0-|--0-------------|----------------|--------------5-|
 i  i  i  i  i  i  i  i

Chorus (2:40-3:10):
G|----------------|----------------|----------------|----------------|
D|--------------4-|5~--------------|----------------|------------5-4-|
A|------------5---|--------------5-|6~----------6-5-|----------------|
E|3~--------------|----------------|----------------|7~--------7-----|
 i  i  i  i  i  i  i  i  i  i  i  i  i  i  i  i

G|----------------|----------------|----------------|----------------|
D|----------------|----------------|----------------|----------------|
A|7~--------------|7---7~------6-5-|----------------|6-6-5-----------|
E|--------0~----0-|--0-------------|7~------7-7~--7-|--------7---5---|
 i  i  i  i  i  i  i  i  i  i  i  i  i  i  i  i

G|----------------|----------------|----------------|----------------|
D|--------5~------|------------4---|----------------|------------5---|
A|------5-------5-|--------5-7---5-|6~----5-6~----5-|6~------7-6---6-|
E|3~--------------|3~--------------|----------------|----------------|
 i  i  i  i  i  i  i  i  i  i  i  i  i  i  i  i

G|----------------|----------------|----------------|
D|----------------|----------------|----------------|
A|7~------7~----6-|7~--------------|----------------|
E|----------------|--------0-2-3-5-|7~------7~------|
 i  i  i  i  i  i  i  i  i  i  i  i


Bridge (3:13-3:59):
G|----------------|----------------|----------------|----------------|
D|----------------|----------------|----------------|----------------|
A|----------------|----------------|6~--------------|----------------|
E|----------------|----------------|----------------|--------------7-|
 i  i  i  i  i  i  i  i  i  i  i  i  i  i  i  i

G|----------------|----------------|----------------|----------------|
D|----------------|----------------|----------------|----------------|
A|7~--------------|----------------|----------------|----------------|
E|----------------|0~--------------|7~--------------|8~--------------|
 i  i  i  i  i  i  i  i  i  i  i  i  i  i  i  i

G|----------------|----------------|----------------|----------------|
D|----------------|5~--------------|----------------|----------------|
A|--------------5-|----------------|----------------|----------------|
E|3~--------------|----------------|8~--------------|7~--------------|
 i  i  i  i  i  i  i  i  i  i  i  i  i  i  i  i

G|----------------|----------------|----------------|----------------|
D|----------------|----------------|----------------|--------------4-|
A|----------------|----------------|--------------4-|5~--------------|
E|8~--------------|7~--------------|5~--------------|----------------|
 i  i  i  i  i  i  i  i  i  i  i  i  i  i  i  i

G|----------------|----------------|----------------|----------------|
D|5~--------------|----------------|----------------|----------------|
A|--------------5-|----------------|----------------|----------------|
E|----------------|3~------------7-|8~------------6-|7~------------7-|
 i  i  i  i  i  i  i  i  i  i  i  i  i  i  i  i

G|----------------|----------------|----------------|----------------|
D|----------------|----------------|----------------|--------------4-|
A|----------------|----------------|--------------4-|5-5-5-5-5-5-5---|
E|8~------------6-|7~------------4-|5-5-5-5-5-5-5---|----------------|
 I  i  i  i  i  i  i  i  i  i  i  i  i  i  i  i

Second Chorus (3:59-4:30):
G|----------------|----------------|----------------|----------------|
D|5-5-5-4-5-5-5-4-|5-5-5-----------|----------------|----------------|
A|----------------|------5-----5---|3-3-3-2-3-3-3-1-|2-2-2-1-2-2-2-2-|
E|----------------|--------3-3---3-|----------------|----------------|
 i  i  i  i  i  i  i  i  i  i  i  i  i  i  i  i

G|----------------|----------------|----------------|----------------|
D|----------------|----------------|------------7---|----------------|
A|3-3-3-2-3-3-3-1-|2-2-2-1-2-2-----|--------------4-|5-5-5-5-5-5-5-5-|
E|----------------|------------4-4-|5-5-5-4-5-5-----|----------------|
 i  i  i  i  i  i  i  i  i  i  i  i  i  i  i  i

G|----------------|----------------|----------------|----------------|
D|----------------|----------------|----------------|----------------|
A|----------------|----------------|------------5---|----------------|
E|3-3-3-3-3-3-3-3-|3-3-5-5-7-7-9-6-|8-8-8-8-8-8---6-|7-7-5-5-7-4-5-6-|
 i  i  i  i  i  i  i  i  i  i  i  i  i  i  i  i

G|----------------|----------------|----------------|----------------|
D|----------------|----------------|----------------|----------------|
A|----------------|----------------|------------4-4-|5-5-5-5-5---5---|
E|8-8-8-8-8-8-8-8-|7-7-7-7-7-7-7-6-|5-5-5-5-5-5-----|----------5---5-|
 i  i  i  i  i  i  i  i  i  i  i  i  i  i  i  i


Outro (4:31-5:02):
G|----------------|----------------|----------------|----------------|
D|----------------|----------------|----------------|----------------|
A|----------------|----------------|----------------|----------------|
E|3~--------------|----------------|----------------|----------------|
 i  i  i  i  i  i  i  i  i  i  i  i  i  i  i  i


************************************

| ~ Vibrato

Almost there ...

Sign in to get your own page with links to favourite songs and more. You are just one click away...

Login with Facebook Login with Google