The Devils Chasing Me by Reverend Horton Heat

The Devils Chasing Me tab by Reverend Horton Heat

Guitar tabs

Intro

E|----6--5h6--5h6--5-----------------|
B|----5--5-5--5-5--5-5-------5-------|
G|----------------------7------------|
D|------------------------8----7-5---|
A|---------------------------------7-|
E|-0---------------------------------|

E|---------------------|---------------------|
B|-5---------3---------|---------------------|
G|----4-3--4----4-3--4-|-5--4-3--4----4----4-|
D|---------------------|-----------5----4----|
A|---------------------|---------------------|
E|---------------------|---------------------|

E|---------------------|--------------------|
B|---------------------|--------------------|
G|----0----0----0----0-|---0----0----0----0-|
D|-2----0--------------|--------------------|
A|-----------3----2----|-0------------------|
E|---------------------|-----3----2----1----|


Verse

E|-----------------------------------------|
B|---------------------------------------0-|
G|-----------------------------------------|
D|------2---------2---------2---------2----|
A|-----------------------------------------|
E|-0--0----0-0--0----0-0--0----0-0--0------|

E|-----------------------------------------|
B|-----------------------------------------|
G|-----------------------------------------|
D|------2---------2---------2---------2----|
A|-----------------------------------------|
E|-0--0----0-0--0----0-0--0----0-0--0----0-|

E|-----------------------------------------|
B|-----------------------------------------|
G|---------------------------------------0-|
D|------2---------2---------2---------2----|
A|-----------------------------------------|
E|-0--0----0-0--0----0-0--0----0-0--0------|

E|-----------------------------------------|
B|-----------------------------------------|
G|-----------------------------------------|
D|------2---------2---------2---------2----|
A|-----------------------------------------|
E|-0--0----0-0--0----0-0--0----0-0--0----0-|


Bridge:

E|--------------------------------------|
B|--------------------------------------|
G|--------------------------------------|
D|------2---------2---------2---5---6---|
A|--------------------------2---5---6---|
E|-0--0----0-0--0----0-0--0-0---3---4---|


Chorus


 Am                        Bb5 A5 G5 E5 G5
A fire breathing whisper singe my ear, but there's no one to be seen
    Am                 Bb A5  G5 E5
Coming out my rear view mirror is ol' sly Satan's limousine
  Am                     Bb5 A5 G5  E5 G5
You sell your soul to the devil, he'll give you eve-ry-thing you see
       Am                           B7
But when the devil comes collecting you're gonna be paying for eternity


The Devil's chasing me

Find guitar tabs and chords

A B C D E F G H I J K L M N O P Q R S T U V W X Y Z #