Psychobilly Freakout by Reverend Horton Heat

Psychobilly Freakout tab by Reverend Horton Heat

Guitar tabs

This is in regular E tuning and
yes I do know that it isn't complete,
I'll keep working on it and updating
as I find out more.... Just bear with
me people, this is a tough song...




Intro
e|---------------------------------------------|*
B|------------3-5-3------------3-5-------------|*
G|-5p4h5p4p3p0-----5p4h5p4p3p0---5-5p4h5p4p3p0-|*
D|---------------------------------------------|*
A|---------------------------------------------|*
E|---------------------------------------------|*

*|---------------------------------------------|
*|-3-5-3-------------3-5-----------------------|
*|-3-5-3-5p4h5p4p3p0-3-5-----------------------|
*|---------------------------------------------|
*|---------------------------------------------|
*|---------------------------------------------|


I don't know what to call these preceding parts..
^^;

e|---------------------------------------------|
B|---3---3---3---3--vTremolo Pickv-------------|
G|-0-3-0-3-0-3-0-3--0-3-5-6-5-3-5--------------|
D|---------------------------------------------|
A|---------------------------------------------|
E|---------------------------------------------|

e|---------------------------------------------|
B|-0-3-x-3-6-5-3-0-3-3-666-5-x-3-0-------------|
G|-0-3-x-3-6-5-3-0-3-3-666-5-x-3-0-------------|
D|---------------------------------------------|
A|---------------------------------------------|
E|---------------------------------------------|

and that's all I've got for now..

Find guitar tabs and chords

A B C D E F G H I J K L M N O P Q R S T U V W X Y Z #