One Time For Me by Reverend Horton Heat

One Time For Me tab by Reverend Horton Heat

Guitar tabs

From rhart@webbernet.net Thu May 15 17:09:10 1997

----------------
One Time For Me
----------------

by the Reverend Horton Heat
tabbed by weevil (sub@servtech.com)
uploaded by Rob Hart rhart@webbernet.net
main riff
e|-------------------------------------------------------1----
B|-------------------------------------------------------1----
G|--------------------------repeat several times then---------
D|--------------------------play this (Fm barred i think)3----
A|---------1--3-3-3--2---1--with a wammy bar dive--------3----
E|-1-1--4------------------------------------------------1----

chorus type thing
e|--------------------------------------------------------
B|--------------------------------------------------------
G|--------------------------------------------------------
D|-3--4-5---6--6-6-6-6-6-6--------------------------------
A|-3--4-5---6--6-6-6-6-6-6--(keep strumming then return to)
E|-1--2-3---4--4-4-4-4-4-4--------(opening riff)----------

ending fast part
e|-----------------------------------------1--------------
B|-----------------------------------------1--------------
G|------------5-4-3------------5--4-3---------------------
D|-3--3-3-3---5-4-3--3-3-3-3---5--4-3------3--------------
A|-3--3-3-3---3-2-1--3-3-3-3---3--2-1------3--------------
E|-1--1-1-1----------1-1-1-1---------------1--------------

Find guitar tabs and chords

A B C D E F G H I J K L M N O P Q R S T U V W X Y Z #