Now Right Now by Reverend Horton Heat

Now Right Now tab by Reverend Horton Heat

Guitar tabs

NOW, RIGHT NOW


Intro

              x 3
E|--------------------------|--------------------|
B|--8\7--8\7---9\8----9\8---|-10\9--10\9---11\---|
G|--9\8--9\8--10\9---10\9---|-11\10-11\10--12\---|
D|-10\9-10\9--11\10--11\10--|-12\11-12\11--13\---|
A|--------------------------|--------------------|
E|--------------------------|--------------------|


   C       Bb      G
Yeah you, tried to give it to me then
  C      Bb         G
But that, was a long time way back when
  C       Bb       G      C
And you, tried to give it to me again again again
  Bb    G
But I didn't want it

     C     Fsus2/C  C     Fsus2/C  C
I want it now right now right now right now right now right now
     C     Fsus2/C  C     Fsus2/C  C
I want it now right now right now right now right now right now


Yeah we, could have the sweetest thing
Yes we, could live what others only sing
But you, got so very very stuck up all of a sudden
It just doesn't make sense
I want it now right now...


(Intro again...)
                 x 4
E|-8---------------8-------6----------
B|------------------------------------
G|------------------------------------
D|------------------------------------
A|------------------------------------
E|---8-8-8-8-8-8-8---1-1-1---3-3-3----

(...this is just a rouch sketch of what he plays)


  trem     x 4
E|-8-----13--------|
B|-8-----13--------|
G|-9-----14--------|
D|-10----15--------|
A|-10----15--------|
E|-8-----13--------|

(...and finally some solo stuff in Cm key)


Yeah I, was really stupid to believe
That you, would always be there wanting me
Now I, beg you please to forgive me forgive me forgive me forgive
But you ain't about to do it
I want it now right now...





Aint talkin' about tomorrow,
And I didn't want it the day before,
So guess when I want it,
I want it now!... Right now!... Right now!
Might never know,
And I didn't want it to hurt you.

I want it now! Yeah!

Find guitar tabs and chords

A B C D E F G H I J K L M N O P Q R S T U V W X Y Z #