Loaded Gun by Reverend Horton Heat

Loaded Gun tab by Reverend Horton Heat

Guitar tabs

From rhart@webbernet.net Thu May 15 17:09:03 1997

----------------
Loaded Gun
----------------

by The Reverend Horton Heat
tabbed by weevil (sub@servtech.com)
uploaded by Rob Hart (rhart@webbernet.net)
e|--------------------------------------------------------
B|--------------------------------------------5--5-5-5-5--
G|--------------------------------------------------------
D|--------------------------------------------------------
A|-----------------0-0-3-3-0-0-3-3------------------------
E|-0-0-3-3-0-0-3-3------------------0-0-3-3-0-------------
  my right hand holds a ...

e|--------------------------------------------------------
B|-----------5-5-5-5-5------------------------------------
G|--------------------------------------------------------
D|--------------------------------------------------------
A|-------------------------------------0-0-3-3-0-0-3-3----
E|-0-0-3-3-0-----------0-0-3-3-0-0-3-3--------------------
           my left hand holds a ....


e|--------------------------------------------------------
B|-0-------------0----------------------------------------
G|-2-----2-------2----------------------------------------
D|-1---1----1----1----------------------------------------
A|-2-2--------2--2------------------------0-0-3-3-0-0-3-3-
E|----------------------0-0-3-3-0-0-3-3-------------------
 gin          my right arm ....

e|--------------------------------------------------------
B|-------------5-5-5-5-5----------------------------------
G|--------------------------------------------------------
D|--------------------------------------------------------
A|--------------------------------------------------------
E|---0-0-3-3-0-------------0-0-3-3-0-0-3-3--0-0-3-3-------
  her love only            but ....

e|--------------------------------------------------------
B|-----0--------------------------------------------------
G|-----2------2-------------------------------------------
D|-----1---1-------1-----------------------------2-2-2-2-2
A|---0-2--------2------------------------2-2-2-2-2-2-2-2-2
E|-----------------------0-0-3-3-0-0-3-3-0-0-0-0-0-0-0-0-0
  still embraces a ...

e|--------------------------------------------------------
b|-------1-----1-1-1--------------0-0--0--0-0-0-0-0-0-----
G|-----2-2---2-2-2-2-------0----0-0-0--X--X-X-X-X-X-X-----
D|---2-2-2---2-2-2-2-------0--0-0-0-0--2--2-2-2-2-2-2-----
A|-0-0-0-----0-0-0-0-----2----2-2-2-2--2--2-2-2-2-2-2-----
E|---------------------3------3-3-3-3--0--0-0-0-0-0-0-----
  we had ourselves the ....

e|--------------------------------------------------------
b|-------1-----1-1-1-------------0-0-0--0-0-0-0------------------
G|-----2-2---2-2-2-2--------0--0-0-0-0--2-2-2-2--------------------
D|---2-2-2---2-2-2-2------0-0--0-0-0-0--1-1-1-1---------------------
A|-0-0-0-----0-0-0-0----2-2-2--2-2-2-2--2-2-2-2----------------------
E|--------------------3--------3----------------------------
  we laughed and sang ....

e|--------------------------------------------------------
B|--------------------------------------------------------
G|--------------------------------------------------------
D|--------------------------------------------------------
A|------------------------0-0-3-3-0-0-3-3-----------------
E|-------0-0-3-3-0-0-3-3------------------0-0-3-3-0-0-3-3-
  but i drowned it in a sea of ....

e|--------------------------------------------------------
B|-----------------------------------------------0--------
G|-------------------------------------2---------2--------
D|-----------------------------------1----1----1----------
A|---------------------------------2--------2-------------
E|-0-0-3-3-0-0-3-3-0-0-3-3-0-0-3-3------------------------
          and now the only love ...

e|--7--7---7---------7-----7------------------------------
B|--8--8---8----8-10----10---10-8-------------------------
G|--9--9---9--9-------------------9-8-7-----7-------------
D|--------------------------------------9-8---9-8---------
A|--------------------------------------------------------
E|--------------------------------------------------------

e|--7---7----------------7----------------7------------7--
B|--8---8-----------7------7------------7---7-------7--7--
G|--9---9---------8---8-------8-------8-------8-----8--8--
D|--------------9---------------9---9------------9--9--9--
A|--------------------------------------------------------
E|--------------------------------------------------------

e|-7-7-7----7---------------------------------------------
B|-8-8-8----8----8---7-------8---7------------------------
G|-9-9-9----9----------9-----------9----------------------
D|-----------------------9-----------9-9-9-7h9-9-9-7------
A|--------------------------------------------------9-8-7-
E|--------------------------------------------------------

e|--------------------------------------------------------
B|--------------------------------------------------------
G|-9-9-9---------2----------------------------------------
D|-----------1------1-------------------------------------
A|---------2---2------2-----------------------------------
E|----------------------3-0-0-3-3-0-0-3-3-0-0-3-3-0-0-3-3-

the ending of the song can be derived from the previous parts

Other versions of Loaded Gun

Alternative guitar chords and tabs for Loaded Gun by Reverend Horton Heat

Find guitar tabs and chords

A B C D E F G H I J K L M N O P Q R S T U V W X Y Z #