Livin On The Edge by Reverend Horton Heat

Livin On The Edge tab by Reverend Horton Heat

Guitar tabs

From rhart@webbernet.net Thu May 15 17:08:58 1997

----------------
Livin' on the Edge (of Houston)
----------------
from Rob Hart(rhrt@webbernet.net)


main part
e|--------------------------------------------------------
B|--------------------------------------------------------
G|--5---7--8--7------5---7--8--7--------------------------
D|--------------------------------------------------------
A|--3---5--6--5------3---5--6--5--------------------------
E|--------------------------------------------------------
sounds like octaves to me.. that isnt the rhythm up there.. just go
crazy

chorus
e|--------------------------------------------------------
B|--------------------------------------------------------
G|-12-12-12----10-10-10-----7-----------------------------
D|--------------------------------------------------------
A|-10-10-10-----8--8--8-----5-----------------------------
E|--------------------------------------------------------

pre solo
e|--------------------------------------------------------
B|--------------------------------------------------------
G|--------------------------------------------------------
D|--10p8-10p8-10p8-8-9--(3x)-10-8-10----------------------
A|--------------------------------------------------------
E|--------------------------------------------------------

solo (incomplete as of yet.. and probably wrong too)
e|--------------------------------------------------------
B|------------------------------13--15^16-15-13-----------
G|-----------------------12^14r---------------------------
D|--------9-10-12^13r-10----------------------------------
A|-10-12--------------------------------------------------
E|--------------------------------------------------------
that first bend is a real slow one i think. real expressive and picked
several times.

e|------------------------------------------15-15-15------
B|--16-16p15----------------19-18-17-15-15--15-15-15------
G|-----------17---15-14-12-------------------0--0--0------
D|--------------------------------------------------------
A|--------------------------------------------------------
E|--------------------------------------------------------

e|--12-11-10----------------------------------------------
B|------------13-13-----11h13-11h13-----------------------
G|----------------------------------11-10-----------------
D|----------------------------------------9-10------------
A|--------------------------------------------------------
E|--------------------------------------------------------

e|--------------------------------------------------------
B|-----------------------------------10-11-12-13-14-15----
G|---------------9-10-11-12----12-12----------------------
D|--9-9-11-11-12------------------------------------------
A|--------------------------------------------------------
E|--------------------------------------------------------

e|--------------------------15-15-15-15-15-15-15-15-------
B|-18-18-18-18-20-20-20-20--20-20-20-20-20-20-20-20-------
G|-17-17-17-17-19-19-19-19--0--0--0--0--0--0--0--0--------
D|--------------------------------------------------------
A|--------------------------------------------------------
E|--------------------------------------------------------

e|--------------------------------------------------------
B|-18-18-18-18-20-20-20-20--13/18\13-13/18\13-13/18\13----
G|-17-17-17-17-19-19-19-19--12/17\12-12/17\12-12/17\12----
D|--------------------------------------------------------
A|--------------------------------------------------------
E|--------------------------------------------------------

theres a bit more after this but im just not good enough yet.

Find guitar tabs and chords

A B C D E F G H I J K L M N O P Q R S T U V W X Y Z #