Galaxy 500 by Reverend Horton Heat

Galaxy 500 tab by Reverend Horton Heat

Guitar tabs

Galaxy 500 - The Reverend Horton Heat
-----------------------------------------------------------------------------
Tabbed by:LoFiHiFi



 |       x10 |
e|--3--------1------|---------|-----0--------------|
B|-----3----------1-|--3------|-9P7---------0------|
G|---4----------2---|------5--|--------7P5---------|
D|5--------3--------|---4-----|----------------0---|
A|------------------|5--------|--------------------|
E|------------------|---------|--------------------|
 |            x4  |       |        x4   |  x10|
e|--3------------1--------------|--3--3--5--5-|---3------------1-----|-3--6-|
B|------3------------1----------|--3--4--5--6-|-------3------------1-|-3--6-|
G|----4------------2------------|--4--5--6--7-|-----4------------2---|-4--6-|
D|5-----------3-----------------|--5--5--7--7-|-5------------3-------|-5--6-|
A|------------------------------|--5--3--7--5-|----------------------|-5--4-|
E|------------------------------|--3-----5----|----------------------|-3--4-|
 |    x5  |   x4  | x10|     x5  |   |  x5  |
e|-3--3--5--5--|----------|-3--|---------------|-3--3-|-3-3-5-5--|
B|-3--4--5--6--|---3------|-3--|----3----------|-3--4-|-3-4-5-6--|
G|-4--5--6--7--|-------5--|-4--|----------5----|-4--5-|-4-5-6-7--|
D|-5--5--7--7--|-----4----|-5--|-------4-------|-5--5-|-5-5-7-7--|
A|-5--3--7--5--|-5--------|-5--|-5-------------|-5--3-|-5-3-7-5--|
E|-3-----5-----|----------|-3--|---------------|-3----|-3---5----|

There is a solo here. I am sorry, but I can't tell what The Reverend is playing.
 |          x10    |  x20 |    x15  |    x10    |
e|--3------------1--------------|-3--6---|--3--3--5--5--|---3----------1----|
B|------3------------1----------|-3--6---|--3--4--5--6--|--------3---------1|
G|----4------------2------------|-4--6---|--4--5--6--7--|-----4----------2--|
D|5-----------3-----------------|-5--6---|--5--5--7--7--|-5----------3------|
A|------------------------------|-5--4---|--5--3--7--5--|-------------------|
E|------------------------------|-3--4---|--3-----5-----|-------------------|

************************************

| /  slide up
| \  slide down
| h  hammer-on
| p  pull-off
| ~  vibrato
| +  harmonic
| x  Mute note
| b  Bend
| pb Pre-bend
| br Bend release
| pbr Pre-bend release
| brb Bend release bend

************************************

Find guitar tabs and chords

A B C D E F G H I J K L M N O P Q R S T U V W X Y Z #