Five O Ford by Reverend Horton Heat

Five O Ford tab by Reverend Horton Heat

Guitar tabs

This is the Rev's Five-o-Ford
TABed by Kyle Schnettler
These are the first 3 riffs and they are played lightning fast
All it really is is a speedy version of "Hotrod Lincon"
e------------------------------------------------------------
b------------------------------------------------------------
g------------------------------------------------------------
d------------------------------------------------------------
a------------2-----------------------------------------------
e-0-2-3-4-----4-3-2---------------------------------------


e------------------------------------------------------------
b------------------------------------------------------------
g------------------------------------------------------------
d------------2-----------------------------------------------
a-0-2-3-4-----4-3-2---------------------------------------
e------------------------------------------------------------


e------------------------------------------------------------
b------------------------------------------------------------
g------------------------------------------------------------
d-----------4------------------------------------------------
a-2-4-5-6----6-5-4-------2-4-5-4-5-4-5--2-4-5-4-5-4-
e-------------------------------------------------------------

If you get these down the rest is a mostly bass song.
Jimbo plays an upright bass but you should be able to handle it
if you got yourself an elec.

all of it is played on the bottom string like this:

e-0-0-0-0-0-0-0-0----------------------------------------


e-5-5-5-5-5-5-5-5----------------------------------------


e-7-7-7-7-7-7-7-7----------------------------------------


e-0-0-0-0-0-0-0-0----------------------------------------


If you have a drumber and you can figure out the words
and the solo (real easy) you got an instant fan pleaser.

			 Melt with You by Modern English
    			 Hot Pants Explosion by The B-52's
			 Centerfold by the J.Gelis Band

Thanks for the insparation Nathan, Wyn, and Sanjay.

Tutles.

Find guitar tabs and chords

A B C D E F G H I J K L M N O P Q R S T U V W X Y Z #