Crusin For A Brusin by Reverend Horton Heat

Crusin For A Brusin tab by Reverend Horton Heat

Guitar tabs

From rhart@webbernet.net Thu May 15 17:09:18 1997

----------------
Crusin' For a Bruisin'
----------------

>From rhart@webbernet.net
intro
e|---------------------------------------10-10-10-10-10---
B|---------------------------------------12-12-12-12-12---
G|---------------------------------------10-10-10-10-10---
D|--7-7-7-7-7-7-7-7-8-8-8-8-9-9-9-9--10-------------------
A|--5-5-5-5-5-5-5-5-6-6-6-6-7-7-7-7---8-------------------
E|--------------------------------------------------------

e|-13-13-13-13-13-----------------------------------------
B|-15-15-15-15-15-----------------------------------------
G|-13-13-13-13-13-----------------------------------------
D|-----------------7-7-7-7-7-7-7-7-8-8-8-8-9-9-9-9-10-----
A|-----------------5-5-5-5-5-5-5-5-6-6-6-6-7-7-7-7--8-----
E|--------------------------------------------------------

e|-13-13-13-13-13--17-17-17-17-17-------------------------
B|-15-15-15-15-15--19-19-19-19-19-------------------------
G|-13-13-13-13-13--17-17-17-17-17-------------------------
D|--------------------------------7-7-7-7-7-7-7-7-8-8-8-8-
A|--------------------------------5-5-5-5-5-5-5-5-6-6-6-6-
E|--------------------------------------------------------

e|--------------------------------------------------------
B|--------------------------------------------------------
G|--------------------------------------------------------
D|-9-9-9-9-10--7--4-----5---------------------------------
A|-7-7-7-7--8--5--2--6--3---let ring..--------------------
E|-------------------4------------------------------------

main riff
e|--------------------------------------------------------
B|-------------13----13--------------13----13-------------
G|-------------13----13--------------13----13-------------
D|-12-13-14-15----15-----12-13-14-15----15----------------
A|--------------------------------------------------------
E|--------------------------------------------------------

chorus
e|--------------------------------------------------------
B|--------------------------------------------------------
G|--------------------------------------------------------
D|-2-2-2-2-2-2-2-2-2-2-2-2-2-2-2-2------------------------
A|-1-1-1-1-1-1-1-1-1-1-1-1-1-1-1-1--2-2-2-2-2-2-2-2-2-2-2-
E|----------------------------------1-1-1-1-1-1-1-1-1-1-1-

e|--------------------------------------------------------
B|--------------------------------------------------------
G|------------------------------------------10------------
D|------------7-7-7-7-7-7-7-8-8-8-8-9-9-9-9-10------------
A|-2-2-2-2-2--5-5-5-5-5-5-5-6-6-6-6-7-7-7-7-8-------------
E|-1-1-1-1-1----------------------------------------------

solo- will not be attempted today :)

ending riff
e|--------------------------------------------------------
B|--------------------------------------------------------
G|-------------13-14-15-16-15-14-13-----------------------
D|-12-13-14-15----------------------15--------------------
A|--------------------------------------------------------
E|--------------------------------------------------------

Find guitar tabs and chords

A B C D E F G H I J K L M N O P Q R S T U V W X Y Z #