Bullet by Reverend Horton Heat

Bullet tab by Reverend Horton Heat

Intro

The Reverend Horton Heat – Bullet (instrumental)
From the album “Smoke 'Em If You Got 'Em”


e|------------------|------------------|----------------|
B|------------------|------------------|-+12~--(larsen)-|
G|------------------|------------------|-+12~-----------|
D|-------2----------|-------2----------|----------------|
A|---1-2-----1---0--|---1-2-----1---0--|----------------|
E|-0-------3---2--3-|-0-------3---2--3-|----------------|

e||--------------------------------|--------------------------------|
B||--------------------------------|--------------------------------|
G||--------------------------------|--------------------------------|
D||-------------2-2----------------|-------------2-2----------------|
A||-----1-1-2-2---------1-1-----0--|-----1-1-2-2---------1-1-----0--|
E||-0-0-------------3-3-----2-2--3-|-0-0-------------3-3-----2-2--3-|

e|--------------------------------|--------------------------------||
D|--------------------------------|--------------------------------||
B|--------------------------------|--------------------------------||
G|-------------2-2----------------|-------------2-2----------------||
A|-----1-1-2-2---------1-1--------|-----1-1-2-2---------1-1-----0--||
E|-0-0-------------3-3------2--1--|-0-0-------------3-3-----2-2--3-||

                 2x
e||--------------------------------||
B||--------------------------------||
G||-------------2-2----------------||
D||-----1-1-2-2-2-2-----1-1-----0--||
A||-0-0-------------3-3-----2-2--3-||
E||--------------------------------||

e|--------------------------------|----------------------------------|
B|--------------------------------|----------------------------------|
G|--------------------------------|-----------------/4-4-4-4-4-4-2-0-|
D|-------------2-2----------------|-------------2-2------------------|
A|-----1-1-2-2---------1-1-----0--|-----1-1-2-2----------------------|
E|-0-0-------------3-3-----2-2--3-|-0-0------------------------------|

         3x
e||-----------------||-----------------|--------------------------------|-----||
B||-----------------||-----------------|--------------------------------|-----||
G||-----------------||-------------5\4-|--------------------------------|-----||
D||-----4-4-----5\4-||-----4-4-----5\4-|-------------2-2----------------|-----||
A||-2-2-----0-0-----||-2-2-----0-0-----|-----1-1-2-2---------1-1-----0--|-----||
E||-----------------||-----------------|-0-0-------------3-3-----2-2--3-|-0\--||

WOAAARRRRHHH !

e|-7-6-7--10---9-|-12-13-14--15--14-|-7-6-7--10---9-|
B|-7-6-7--10---9-|-12-13-14--15--14-|-7-6-7--10---9-|
G|-7-6-7--10---9-|-12-13-14--15--14-|-7-6-7--10---9-|
D|-9-8-9--12--11-|-14-15-16--17--16-|-9-8-9--12--11-|
A|---------------|------------------|---------------|
E|---------------|------------------|---------------|

e|-----------------------------------------|
B|-----------------------------------------|
G|-3/4-4-4--3/4-4-4--3/4-4-4--3/4-4--------|
D|-3/4-4-4--3/4-4-4--3/4-4-4--3/4-4--------|
A|-1/2-2-2--1/2-2-2--1/2-2-2--1/2-2--------|
E|----------------------------------3/12\3-|

e||---------------------------------|-----------------------------------|
B||---------------------------------|-----------------------------------|
G||-----------------------------3/4-|-------------------------3/4-/-14\-|
D||-------------2-2-----------------|-------------2-2-------------------|
A||-----1-1-2-2---------1-1---------|-----1-1-2-2---------1-1-----------|
E||-0-0-------------3-3-----2-2-----|-0-0-------------3-3---------------|

e||---------------------------------|-----------------------------------|
B||---------------------------------|-----------------0-5-0-7-0-8-0-9\--|
G||-----------------------------3/4-|-----------------------------------|
D||-------------2-2-----------------|-------------2-2-------------------|
A||-----1-1-2-2---------1-1---------|-----1-1-2-2-----------------------|
E||-0-0-------------3-3-----2-2-----|-0-0-------------------------------|

e||----------------/5-5-6-5-6-------|------------/5-6-6-5-6-5-12\----||
B||----------------/5-5-6-5-6-------|------------/5-6-6-5-6-5-12\----||
G||-------------2-2-----------------|--------------------------------||
D||-----1-1-2-2-2-2-----------------|-----1-1-2-2--------------------||
A||-0-0-----------------------------|-0-0----------------------------||
E||---------------------------------|--------------------------------||

e||---------------------------------|-----------------------------------|
B||---------------------------------|-----------------------------------|
G||---------------------------------|-----------------------------------|
D||-------------2-2-----------------|-------------2-2-------------------|
A||-----1-1-2-2---------1-1-----0---|-----1-1-2-2-----------------------|
E||-0-0-------------3-3-----2-2--3--|-0-0-------------3/15\-(strumming)-|

         3x
e||-----------------||-----------------|--------------------------------|-----||
B||-----------------||-----------------|--------------------------------|-----||
G||-----------------||-------------5\4-|--------------------------------|-----||
D||-----4-4-----5\4-||-----4-4-----5\4-|-------------2-2----------------|-----||
A||-2-2-----0-0-----||-2-2-----0-0-----|-----1-1-2-2---------1-1-----0--|-----||
E||-----------------||-----------------|-0-0-------------3-3-----2-2--3-|-0v/-||

WOAAARRRRHHH !

e|-7-6-7--10---9-|-12-13-14--15--14-|-7-6-7--10---9-|
B|-7-6-7--10---9-|-12-13-14--15--14-|-7-6-7--10---9-|
G|-7-6-7--10---9-|-12-13-14--15--14-|-7-6-7--10---9-|
D|-9-8-9--12--11-|-14-15-16--17--16-|-9-8-9--12--11-|
A|---------------|------------------|---------------|
E|---------------|------------------|---------------|

e|-----------------------------------------|
B|-----------------------------------------|
G|-3/4-4-4--3/4-4-4--3/4-4-4--3/4-4--------|
D|-3/4-4-4--3/4-4-4--3/4-4-4--3/4-4--------|
A|-1/2-2-2--1/2-2-2--1/2-2-2--1/2-2--------|
E|----------------------------------3/12\3-|

           3x
e||----0---------------||---0-------------------------|
B||----0---------------||---0-------------------------|
G||----0---------------||---0-3p2p0-------------------|
D||----2---------------||---2-------2p1p0-------------|
A||----2------1-0---0--||---2-------------2p1p0-------|
E||--0----3-3-----3----||-0---------------------3p2p0-|

e|-0-0-0-0--0--0-|-0-0-0-0--0--0-|-0-0-0-0--0--0-|-0-0-0-0-0-0-0--0--0--0-|
B|-5-5-5-5--3--0-|-5-5-5-5--3--0-|-5-5-5-5--3--0-|-5-5-5-7-8-7-8-10-11-10-|
G|-4-4-4-4--4--4-|-4-4-4-4--4--3-|-4-4-4-4--4--4-|-0-0-0-0-0-0-0--0--0--0-|
D|---------------|---------------|---------------|------------------------|
A|---------------|---------------|---------------|------------------------|
E|---------------|---------------|---------------|------------------------|

           X3       x4           x3
e|-\12-12-12-12-12---0-||-12-12-------||-12-12-12-12--18--17-||
B|-\12-12-12-12-12--11-||-12-12-------||-12-12-12-12--12--12-||
G|-\12-12-12-12-12--12-||--------14b--||-12-12-12-12--12--12-||
D|---------------------||-------------||---------------------||
A|---------------------||-------------||---------------------||
E|---------------------||-------------||---------------------||

e|-15-15-15-----------------|-0-----------0-0-0-0------|
B|-15-15-15--12-15-14-12----|-0-----------0-0-0-0------|
G|-----------12-15-14-12----|-0-----------0-0-0-0------|
D|--------------------------|-2-----------2-2-2-2------|
A|--------------------------|-2-----------2-2-2-2------|
E|-----------------------\0-|-0—(larsen)--0-0-0-0------|

e|-7-6-7--10---9-|-12-13-14--15--14-|-7-6-7--10---9-|
B|-7-6-7--10---9-|-12-13-14--15--14-|-7-6-7--10---9-|
G|-7-6-7--10---9-|-12-13-14--15--14-|-7-6-7--10---9-|
D|-9-8-9--12--11-|-14-15-16--17--16-|-9-8-9--12--11-|
A|---------------|------------------|---------------|
E|---------------|------------------|---------------|

e|-----------------------------------------|
B|-----------------------------------------|
G|-3/4-4-4--3/4-4-4--3/4-4-4--3/4-4--------|
D|-3/4-4-4--3/4-4-4--3/4-4-4--3/4-4--------|
A|-1/2-2-2--1/2-2-2--1/2-2-2--1/2-2--------|
E|----------------------------------3/12\3-|

e||---------------------------------|-----------------------------------|
B||---------------------------------|-----------------------------------|
G||-----------------------------3/4-|-------------------------3/4-/-14\-|
D||-------------2-2-----------------|-------------2-2-------------------|
A||-----1-1-2-2---------1-1---------|-----1-1-2-2---------1-1-----------|
E||-0-0-------------3-3-----2-2-----|-0-0-------------3-3---------------|

e||----------------/5-5-6-5-6-------|------------/5-6-6-5-6-5-12\----||
B||----------------/5-5-6-5-6-------|------------/5-6-6-5-6-5-12\----||
G||-------------2-2-----------------|--------------------------------||
D||-----1-1-2-2-2-2-----------------|-----1-1-2-2--------------------||
A||-0-0-----------------------------|-0-0----------------------------||
E||---------------------------------|--------------------------------||

e||---------------------------------|-----------------------------10-10-10-7-5-7\-|
B||---------------------------------|-----------------------------10-10-10-7-5-7\-|
G||---------------------------------|---------------------------------------------|
D||-------------2-2-----------------|-------------2-2-----------------------------|
A||-----1-1-2-2---------1-1-----0---|-----1-1-2-2---------------------------------|
E||-0-0-------------3-3-----2-2--3--|-0-0-------------3/15\-(strum)---------------|

         3x
e||-----------------||-----------------|--------------------------------|-----||
B||-----------------||-----------------|--------------------------------|-----||
G||-----------------||-------------5\4-|--------------------------------|-----||
D||-----4-4-----5\4-||-----4-4-----5\4-|-------------2-2----------------|-----||
A||-2-2-----0-0-----||-2-2-----0-0-----|-----1-1-2-2---------1-1-----0--|-----||
E||-----------------||-----------------|-0-0-------------3-3-----2-2--3-|-0v/-||

WOAAARRRRHHH !

e|-7-6-7--10---9-|-12-13-14--15--14-|-7-6-7--10---9-|
B|-7-6-7--10---9-|-12-13-14--15--14-|-7-6-7--10---9-|
G|-7-6-7--10---9-|-12-13-14--15--14-|-7-6-7--10---9-|
D|-9-8-9--12--11-|-14-15-16--17--16-|-9-8-9--12--11-|
A|---------------|------------------|---------------|
E|---------------|------------------|---------------|

e|-----------------------------------------|
B|-----------------------------------------|
G|-3/4-4-4--3/4-4-4--3/4-4-4--3/4-4--------|
D|-3/4-4-4--3/4-4-4--3/4-4-4--3/4-4--------|
A|-1/2-2-2--1/2-2-2--1/2-2-2--1/2-2--------|
E|----------------------------------3/12\3-|

e|-0---------------------------------------------------7/-|
B|-0---------------------------------------------------7--|
G|-0------0-0-0-2-3-0-2-3-0-2-3------------------------7--|
D|-2------------------------------------------------------|
A|-2----------------------------0-1-0---0-1-0---2---------|
E|-0----------------------------------3------3-----0~-----|


***********************************
| /  Slide up
| \  Slide down
| h  Hummer-on
| p  Pull-off
| ~  Vibrato
| +  Harmonic
| x  Dead note
| b  Bend
| pb Pre-bend
| br Bend release
| pbr Pre-bend release
| brb Bend release bend

Find guitar tabs and chords

A B C D E F G H I J K L M N O P Q R S T U V W X Y Z #