Big Red Rocket Of Love by Reverend Horton Heat

Big Red Rocket Of Love tab by Reverend Horton Heat

Guitar tabs

From rhart@webbernet.net Thu May 15 17:08:49 1997

  [The following text is in the "iso-8859-1" character set]
  [Your display is set for the "US-ASCII" character set]
  [Some characters may be displayed incorrectly]

----------------
Big Red Rocket Of Love
----------------
by the Reverend Horton Heat
>From The Album: It^Òs Martini Time
Transcribed by Jordan Snodgrass (jasnodgr@ucsd.edu)
Uploaded by Rob Hart (rhart@webbernet.net)
This is of course played in the typical style.. double picking very
fast.
INTRO
E ||-------------------------------------||---0---||
B ||-------------------------------------||---0---||
G ||-------------------------------------||---0---||
D ||-------------------------------------||---2---||
A ||-----------2-2-----1-1-----0-0-------||---2---||
E ||--0-0-3-3------3-3-----2-2-----1-1---||---0---||
VERSE
E ||-----------||
B ||-----------||
G ||-----------||
D ||-----------||
A ||-----------||
E ||--0-0-3-3--||
CHORUS
E ||--0---------------------------------0-----------------
B ||--0---------------------------------0-----------------
G ||--0---------------------------------0-----------------
D ||--2---------------------------------2-----------------
A ||--2---------------------------------2-----------------
E ||--0-0-0-3-3-0-0-3-3-0-0-3-3-0-0-3-3-0-0-0-3-3-0-0-3-3-
   Let's go...            It's slow...
E -----------------------------------||
B -----------------------------------||
G -----------------------------------||
D --3-3-3-3-3-3-3-3-2-2-2-2-2-2-2-2--||
A --3-3-3-3-3-3-3-3-2-2-2-2-2-2-2-2--||
E --1-1-1-1-1-1-1-1-0-0-0-0-0-0-0-0--||
   My big..   ..love...
-------------------

Find guitar tabs and chords

A B C D E F G H I J K L M N O P Q R S T U V W X Y Z #