Log in

One click and you are in

Login with Facebook Login with Google

Why sign up and log in

Guitar Tabs Explorer
Paul Revere bass tabs for Kicks

Bass tabs

Paul_Revere-Kicks.btab

Basstab by Jan Bjorklund, Finland;
jani_bjorklund@yahoo.se
You are welcome to request for basstabs!
Bienvenidos a pedirme transcripciones para el bajo!
Fingering and positions as suggested by TablEdit.

TablEdited by Jan Bjorklund

Tuning : E A D G 	Time Signature: 4/4

 |    |    |    |    |    |    |    |
|--------------------1---2---3---|------------3---1-------0-------|
|3-----------3---3---------------|--------------------------------|
|--------------------------------|--------------------------------|
|--------------------------------|--------------------------------|

 |    |    |    |    |    |    |    |
|--------------------1---2---3---|------------3---1-------0-------|
|3-----------3---3---------------|--------------------------------|
|--------------------------------|--------------------------------|
|--------------------------------|--------------------------------|

 |    |    |    |    |    |    |    |
|--------------------1---2---3---|------------3---1-------0-------|
|3-----------3---3---------------|--------------------------------|
|--------------------------------|--------------------------------|
|--------------------------------|--------------------------------|

 |    |    |    |    |    |    |    |
|--------------------1---2---3---|------------3---1-------0-------|
|3-----------3---3---------------|--------------------------------|
|--------------------------------|--------------------------------|
|--------------------------------|--------------------------------|

 |    |    |    |    |    |    |    |
|--------------------1---2---3---|------------3---1-------0-------|
|3-----------3---3---------------|--------------------------------|
|--------------------------------|--------------------------------|
|--------------------------------|--------------------------------|

 |    |    |    |    |    |    |    |
|--------1---1-----------1---1---|--------1---1-----------1---1---|
|--------------------------------|--------------------------------|
|4---4-----------4---4-----------|4---4-----------4---4-----------|
|--------------------------------|--------------------------------|

 |    |    |    |    |    |    |    |
|--------------------------------|--------------------------------|
|3-------3-------2-------2-------|1-------1-------0-------0-------|
|--------------------------------|--------------------------------|
|--------------------------------|--------------------------------|

 |    |    |    |    |    |    |    |
|--------1---1-----------1---1---|--------1---1-----------1---1---|
|--------------------------------|--------------------------------|
|4---4-----------4---4-----------|4---4-----------4---4-----------|
|--------------------------------|--------------------------------|

 |    |    |    |    |    |    |    |
|--------------------------------|--------------------------------|
|--------------------------------|--------------------------------|
|3---3---3---3---3---3---3---3---|3---3---3---3---3---3---3---3---|
|--------------------------------|--------------------------------|

 |    |    |    |    |    |    |    |
|1-------1-------1-------1-------|--------------------------------|
|--------------------------------|--------------------------------|
|--------------------------------|4-------4-------4-------4-------|
|--------------------------------|--------------------------------|

 |    |    |    |    |    |    |    |
|1-------1-------1-------1-------|--------------------------------|
|--------------------------------|--------------------------------|
|--------------------------------|4-------4-------4-------4-------|
|--------------------------------|--------------------------------|

 |    |    |    |    |    |    |    |
|1-------1-------1-------1-------|1-------1-------1-------1-------|
|--------------------------------|--------------------------------|
|--------------------------------|--------------------------------|
|--------------------------------|--------------------------------|

 |    |    |    |    |    |    |    |
|--------------------------------|--------------------------------|
|--------------------------------|--------------------------------|
|3---3---3---3---3---3---3---3---|3---3---3---3---3---3---3---3---|
|--------------------------------|--------------------------------|

 |    |    |    |    |    |    |    |
|--------------------1---2---3---|------------3---1-------0-------|
|3-----------3---3---------------|--------------------------------|
|--------------------------------|--------------------------------|
|--------------------------------|--------------------------------|

 |    |    |    |    |    |    |    |
|--------------------1---2---3---|------------3---1-------0-------|
|3-----------3---3---------------|--------------------------------|
|--------------------------------|--------------------------------|
|--------------------------------|--------------------------------|

 |    |    |    |    |    |    |    |
|--------------------1---2---3---|------------3---1-------0-------|
|3-----------3---3---------------|--------------------------------|
|--------------------------------|--------------------------------|
|--------------------------------|--------------------------------|

 |    |    |    |    |    |    |    |
|--------------------1---2---3---|------------3---1-------0-------|
|3-----------3---3---------------|--------------------------------|
|--------------------------------|--------------------------------|
|--------------------------------|--------------------------------|

 |    |    |    |    |    |    |    |
|--------------------1---2---3---|------------3---1-------0-------|
|3-----------3---3---------------|--------------------------------|
|--------------------------------|--------------------------------|
|--------------------------------|--------------------------------|

 |    |    |    |    |    |    |    |
|--------------------1---2---3---|------------3---1-------0-------|
|3-----------3---3---------------|--------------------------------|
|--------------------------------|--------------------------------|
|--------------------------------|--------------------------------|

 |    |    |    |    |    |    |    |
|--------1---1-----------1---1---|--------1---1-----------1---1---|
|--------------------------------|--------------------------------|
|4---4-----------4---4-----------|4---4-----------4---4-----------|
|--------------------------------|--------------------------------|

 |    |    |    |    |    |    |    |
|--------------------------------|--------------------------------|
|3-------3-------2-------2-------|1-------1-------0-------0-------|
|--------------------------------|--------------------------------|
|--------------------------------|--------------------------------|

 |    |    |    |    |    |    |    |
|--------1---1-----------1---1---|--------1---1-----------1---1---|
|--------------------------------|--------------------------------|
|4---4-----------4---4-----------|4---4-----------4---4-----------|
|--------------------------------|--------------------------------|

 |    |    |    |    |    |    |    |
|--------------------------------|--------------------------------|
|--------------------------------|--------------------------------|
|3---3---3---3---3---3---3---3---|3---3---3---3---3---3---3---3---|
|--------------------------------|--------------------------------|

 |    |    |    |    |    |    |    |
|1-------1-------1-------1-------|--------------------------------|
|--------------------------------|--------------------------------|
|--------------------------------|4-------4-------4-------4-------|
|--------------------------------|--------------------------------|

 |    |    |    |    |    |    |    |
|1-------1-------1-------1-------|--------------------------------|
|--------------------------------|--------------------------------|
|--------------------------------|4-------4-------4-------4-------|
|--------------------------------|--------------------------------|

 |    |    |    |    |    |    |    |
|1-------1-------1-------1-------|1-------1-------1-------1-------|
|--------------------------------|--------------------------------|
|--------------------------------|--------------------------------|
|--------------------------------|--------------------------------|

 |    |    |    |    |    |    |    |
|--------------------------------|--------------------------------|
|--------------------------------|--------------------------------|
|3---3---3---3---3---3---3---3---|3---3---3---3---3---3---3---3---|
|--------------------------------|--------------------------------|

 |    |    |    |    |    |    |    |
|--------------------------------|--------------------------------|
|3-------------------------------|3---------------3-------2-------|
|--------------------------------|--------------------------------|
|--------------------------------|--------------------------------|

 |    |    |    |    |    |    |    |
|--------------------------------|----------------7-------5-------|
|0-------------------------------|------------7-------------------|
|--------------------------------|5-------------------------------|
|--------------------------------|--------------------------------|

 |    |    |    |    |    |    |    |
|3-------------------------------|3-----------3---3-------4-------|
|--------------------------------|--------------------------------|
|--------------------------------|--------------------------------|
|--------------------------------|--------------------------------|

 |    |    |    |    |    |    |    |
|--------------------------------|--------------------------------|
|--------------------------------|--------------------------------|
|3---3---3---3---3---3---3---3---|3---3---3---3---3---3---3---3---|
|--------------------------------|--------------------------------|

 |    |    |    |    |    |    |    |
|1-------1-------1-------1-------|--------------------------------|
|--------------------------------|--------------------------------|
|--------------------------------|4-------4-------4-------4-------|
|--------------------------------|--------------------------------|

 |    |    |    |    |    |    |    |
|1-------1-------1-------1-------|--------------------------------|
|--------------------------------|--------------------------------|
|--------------------------------|4-------4-------4-------4-------|
|--------------------------------|--------------------------------|

 |    |    |    |    |    |    |    |
|1-------1-------1-------1-------|1-------1-------1-------1-------|
|--------------------------------|--------------------------------|
|--------------------------------|--------------------------------|
|--------------------------------|--------------------------------|

 |    |    |    |    |    |    |    |
|--------------------------------|--------------------------------|
|--------------------------------|--------------------------------|
|3---3---3---3---3---3---3---3---|3---3---3---3---3---3---3---3---|
|--------------------------------|--------------------------------|

 |    |    |    |    |    |    |    |
|1-------1-------1-------1-------|--------------------------------|
|--------------------------------|--------------------------------|
|--------------------------------|4-------4-------4-------4-------|
|--------------------------------|--------------------------------|

 |    |    |    |    |    |    |    |
|1-------1-------1-------1-------|--------------------------------|
|--------------------------------|--------------------------------|
|--------------------------------|4-------4-------4-------4-------|
|--------------------------------|--------------------------------|

 |    |    |    |    |    |    |    |
|1-------1-------1-------1-------|1-------1-------1-------1-------|
|--------------------------------|--------------------------------|
|--------------------------------|--------------------------------|
|--------------------------------|--------------------------------|

 |    |    |    |    |    |    |    |
|--------------------------------|--------------------------------|
|--------------------------------|--------------------------------|
|3---3---3---3---3---3---3---3---|--------------------------------|
|--------------------------------|--------------------------------|

Almost there ...

Sign in to get your own page with links to favourite songs and more. You are just one click away...

Login with Facebook Login with Google