Log in

One click and you are in

Login with Facebook Login with Google

Why sign up and log in

Guitar Tabs Explorer
Reuben bass tabs for Feel good inc

Bass tabs

This is the tab for Feel Good Inc, the Reuben version. The Reuben version itself is
to the original if you compare them but the rhythm is this the same, anyways this is the
I'm pretty 100% about it as it sounds exactly right to me and others.

|----------------------------|
|--------9-8--------9-8------|
|-6-6-8-9------11-11---9-6-6-|
|----------------------------| Verse Riff

|-----------------|
|-----------------|
|-6-4-------------|
|-----8-6-4-1-111-| Bridge after Verse but before the Chorus

|-----8r-----6r----------------|
|---8------6--------6r-----8-r-|
|-6------4--------6------8-----|
|---------------4------6-------| Chorus (come in after 2 bars)

TRUKLES

Almost there ...

Sign in to get your own page with links to favourite songs and more. You are just one click away...

Login with Facebook Login with Google