Log in

One click and you are in

Login with Facebook Login with Google

Why sign up and log in

Guitar Tabs Explorer
The Replacements tabs for Kiss me on the bus

Guitar tabs with lyrics

This is the basic verse part:

    On               the   bus       that's  ....
E------------------------------------------------------------------------
B--------------------------0-0--0-0----0--------0--------0----------0-0--
G--------------------------4-4--4-4----4--------4--------4----------4-4--
D--------------------------4-4--4-4----2--------2--------2----------4-4--
A--0-h-2--2---0-h-2--2-2---2-2--2-2----0--------X--------0----------2-2--
E--0---0--0---0---0--0-0----------------------4------------------------
And so on...


      Your touch     your transfer      ...
E-------0---------------0-----------------0-----------------------------
B---------0---------------0-----------------0----------0-0--0-0---------
G-----------4---------------4-----------------4--------4-4--4-4---------
D-----2--------2------2-------2----------2-------2-----4-4--4-4---------
A---0--------------------------------------------------2-2--2-2---------
E--------------------4------------------3-------------------------------


The other parts of the song follow these chords:

A chord diagramC# minorC#m           A chord diagramA augmentedA
And it really ...
A chord diagramC# minorC#m          A chord diagramA augmentedA
I might die ...
A chord diagramC# minorC#m         A chord diagramEbmEbm      A chord diagramF#F#
They're all ...


A chord diagramD MajorD              A chord diagramE minor 7Em7
Kiss me on ...
A chord diagramD MajorD              A chord diagramE minor 7Em7
Kiss me on ....

A chord diagramA augmentedA               A chord diagramG+G
Ooh if you knew ...
A chord diagramA augmentedA                A chord diagramG+G
You wouldn't act so ...E A chord diagramA augmentedA A chord diagramD MajorD A chord diagramG+G A chord diagramBB A chord diagramE MajorE
A chord diagramA augmentedA            A chord diagramG+G             BaddE----------->  0 2 4 4 0 0
Hurry hurry, here ...

At the end of the song it goes:
A chord diagramD MajorD              A chord diagramE MajorE   Emaj7/D  A chord diagramF# minorF#m  ? ?
Kiss me on ...


(Who am I kidding? I don't know what those last two are called. They look
like this though:

EADGBE    EADGBE
021X00    044200




Ben McTernan
bc80233@bingsuns.cc.binghamton.edu

Other versions of Kiss Me On The Bus

Kiss Me on The BusChords

Almost there ...

Sign in to get your own page with links to favourite songs and more. You are just one click away...

Login with Facebook Login with Google