Log in

One click and you are in

Login with Facebook Login with Google

Why sign up and log in

Guitar Tabs Explorer
Reo Speedwagon bass tabs for Take it on the run

Take It On The Run bass tab - Reo Speedwagon

Reo Speedwagon bass tabs for Take it on the run

Bass tabs

Tabbed By:Gary Hricewich


 INTRO/NO BASS
G---------------|-----|
D---------------|-----|
A---------------|-5-5\|
E---------------|-----|
   VERSE                        3X
G---|--------------|-------------|-------------|----------|------|
D---|*-------------|-------------|-------------|---------*|------|
A---|*-------------|-3--3-3-3--3-|-5--5-5-5--5-|---------*|------|
E---|--3--3-3-3--3-|-------------|-------------|-3--3--3--|--3-2-|


 CHORUS
G---------------|-------------|-------------|-----------|
D---------------|-------------|-------------|-----------|
A---7--7-7-7--7-|-3--3-3-3--3-|-5--5-5-5--5-|-----------|
E---------------|-------------|-------------|-3--3--3-2-|


                       END CHORUS
G---------------|-------------|-------------|-----|-----|
D---------------|-------------|-------------|-----|-----|
A---7--7-7-7--7-|-3--3-3-3--3-|-------------|-5---|-5-5-|
E---------------|-------------|-5--5-5-5--5-|-----|-----|

 VERSE 2X// CHORUS


   GUITAR LEAD
G---|---------------------|--------------------|------------|
D---|*--------------------|--------------------|------------|
A---|*-7-7-7-7-7-7-7-7--7-|-3-3-3-3-3-3-3-3--3-|------------|
E---|---------------------|--------------------|-5-5--5-5-5-|

                      4X
G--------------|------------|-----------------|
D--------------|------------|----------------*|
A---3-3--3-3-3-|-2-2--2-2-2-|-5-5--5-5-5-5---*|
E--------------|------------|-----------------|

  CHORUS 2X


 END
G---------|---------|----------|---|
D---------|---------|----------|---|
A---------|-3-------|-5--------|---|
E---3-----|---------|----------|-3-|

Almost there ...

Sign in to get your own page with links to favourite songs and more. You are just one click away...

Login with Facebook Login with Google