Log in

One click and you are in

Login with Facebook Login with Google

Why sign up and log in

Guitar Tabs Explorer
Reo Speedwagon bass tabs for Roll with the changes

Roll With The Changes bass tab by Reo Speedwagon

Reo Speedwagon bass tabs for Roll with the changes

Bass tabs with lyrics

Tuning: Standard (EADG)

🏷Legend:
r = rest
/ = slide up
\ = slide down
() = sustained note
! = slap (appears above bar)
(rit.) = ritardando (appears above bar)

INTRO:

G |---------------------------------|
D |---------------------------------|
A |---------------------------------|
E |-r---------------------------3-5-|
  1  &  2  &  3  &  4  &

G |---------------------------------|---------------------------------|
D |---------------------------------|---------------------------------|
A |-3-------------------------------|-3-------------------------------|
E |---------------------------------|---------------------------------|
  1  &  2  &  3  &  4  &   1  &  2  &  3  &  4  &

G |---------------------------------|---------------------------------|
D |---------------------------------|---------------------------------|
A |-3-------------3---------------3-|(3)------------------0-0-1-1-2-2-|
E |---------------------------------|-----------------3-3-------------|
  1  &  2  &  3  &  4  &   1  &  2  &  3  &  4  &


PRE-VERSE:

G |---------5---------------5-------|---------5---------------5-------|
D |---------------------------------|---------------------------------|
A |-3---3-3-----3-3---3-3-3-----3-3-|-3---3-3-----3-3---3-3-3-----3-3-|
E |---------------------------------|---------------------------------|
  1  &  2  &  3  &  4  &   1  &  2  &  3  &  4  &

G |---------5---------------5-------|---------------------------------|
D |---------------------------------|-----2-2-3-3-4-5-----------------|
A |-3---3-3-----3-3-----3-3-------3-|(3)3-------------3---r---------3-|
E |-----------------------------3---|---------------------------------|
  1  &  2  &  3  &  4  &   1  &  2  &  3  &  4  &


VERSE 1:

G |---------5---------------5-------|---------5---------------5-------|
D |---------------------------------|---------------------------------|
A |(3)--3-3-----3-3---3-3-3-----3-3-|-3---3-3-----3-3---3-3-3-----3-3-|
E |---------------------------------|---------------------------------|
  1  &  2  &  3  &  4  &   1  &  2  &  3  &  4  &

G |---------5---------------5-------|---------5-----------------------|
D |---------------------------------|---------------------------------|
A |-3---3-3-----3-3---3-3-3-----3-3-|-3---3-3-----3-3-3-3-0-0-1-1-2-2-|
E |---------------------------------|---------------------------------|
  1  &  2  &  3  &  4  &   1  &  2  &  3  &  4  &

G |---------5---------------5-------|---------5---------------5-------|
D |---------------------------------|---------------------------------|
A |-3---3-3-----3-3---3-3-3-----3-3-|-3---3-3-----3-3---3-3-3-----3-3-|
E |---------------------------------|---------------------------------|
  1  &  2  &  3  &  4  &   1  &  2  &  3  &  4  &

G |---------5---------------5-------|---------5-----------------------|
D |---------------------------------|---------------------2-2-3-3-4-5-|
A |-3---3-3-----3-3---3-3-3-----3-3-|-3---3-3-----3-3-3-3-------------|
E |---------------------------------|---------------------------------|
  1  &  2  &  3  &  4  &   1  &  2  &  3  &  4  &


CHORUS 1:

G |---------3---------------7-------|---------5-----------------------|
D |---------------------------------|---------------------------------|
A |-1---1-1-----1-1/5---5-5-----5-5-|-3---3-3-----3-3/7---7-5---5-3---|
E |---------------------------------|---------------------------------|
  1  &  2  &  3  &  4  &   1  &  2  &  3  &  4  &

G |---------3---------------7-------|---------5-----------------------|
D |---------------------------------|-----------------3-2---3---2-----|
A |-1---1-1-----1-1/5---5-5-----5-5-|-3---3-3-----3---------------3-3-|
E |---------------------------------|---------------------------------|
  1  &  2  &  3  &  4  &   1  &  2  &  3  &  4  &

G |---------3---------------7-------|---------5-----------------------|
D |---------------------------------|---------------------------------|
A |-1---1-1-----1-1/5---5-5-----5-5-|-3---3-3-----3-3/7---7-5---5-3-3-|
E |---------------------------------|---------------------------------|
  1  &  2  &  3  &  4  &   1  &  2  &  3  &  4  &

G |---------------------------------|---------------------------------|
D |---------------------------------|---------------------------------|
A |---------------------------------|---------------------0-0-1-1-2-2-|
E |-3---3---3-3-3-3-3---3-3---3-3---|-3-3-3---3-3-3-3-3-3-------------|
  1  &  2  &  3  &  4  &   1  &  2  &  3  &  4  &


PRE-VERSE:

G |---------5---------------5-------|---------5---------------5-------|
D |---------------------------------|---------------------------------|
A |-3---3-3-----3-3---3-3-3-----3-3-|-3---3-3-----3-3---3-3-3-----3-3-|
E |---------------------------------|---------------------------------|
  1  &  2  &  3  &  4  &   1  &  2  &  3  &  4  &

G |---------5---------------5-------|---------------------------------|
D |---------------------------------|-----2-2-3-3-4-5-----------------|
A |-3---3-3-----3-3---3-3-3-----3-3-|-3-3-------------3---r---------3-|
E |---------------------------------|---------------------------------|
  1  &  2  &  3  &  4  &   1  &  2  &  3  &  4  &


VERSE 2:

G |---------5---------------5-------|---------5---------------5-------|
D |---------------------------------|---------------------------------|
A |(3)--3-3-----3-3---3-3-3-----3-3-|-3---3-3-----3-3---3-3-3-----3-3-|
E |---------------------------------|---------------------------------|
  1  &  2  &  3  &  4  &   1  &  2  &  3  &  4  &

G |---------5---------------5-------|---------5-----------------------|
D |---------------------------------|---------------------------------|
A |-3---3-3-----3-3---3-3-3-----3-3-|-3---3-3-----3-3-3-3-0-0-1-1-2-2-|
E |---------------------------------|---------------------------------|
  1  &  2  &  3  &  4  &   1  &  2  &  3  &  4  &

G |---------5---------------5-------|---------5---------------5-------|
D |---------------------------------|---------------------------------|
A |-3---3-3-----3-3---3-3-3-----3-3-|-3---3-3-----3-3---3-3-3-----3-3-|
E |---------------------------------|---------------------------------|
  1  &  2  &  3  &  4  &   1  &  2  &  3  &  4  &

G |---------5---------------5-------|---------5---------------5-------|
D |---------------------------------|---------------------------------|
A |-3---3-3-----3-3---3-3-3-----3-3-|-3---3-3-----3-3---3-3-3-----3-3-|
E |---------------------------------|---------------------------------|
  1  &  2  &  3  &  4  &   1  &  2  &  3  &  4  &


CHORUS 2:

G |---------3---------------7-------|---------5-----------------------|
D |---------------------------------|---------------------------------|
A |-1---1-1-----1-1/5---5-5-----5-5-|-3---3-3-----3-3/7---7-5---5-3-\-|
E |---------------------------------|---------------------------------|
  1  &  2  &  3  &  4  &   1  &  2  &  3  &  4  &

G |---------3---------------7-------|---------5-----------------------|
D |---------------------------------|---------------3---2---3---2-----|
A |-1---1-1-----1-1/5---5-5-----5-5-|-3---3-3-----3---------------3-3-|
E |---------------------------------|---------------------------------|
  1  &  2  &  3  &  4  &   1  &  2  &  3  &  4  &

G |---------3---------------7-------|---------5-----------------------|
D |---------------------------------|---------------------------------|
A |-1---1-1-----1-1/5---5-5-----5-5-|-3---3-3-----3-3/7---7-5---5-3-\-|
E |---------------------------------|---------------------------------|
  1  &  2  &  3  &  4  &   1  &  2  &  3  &  4  &

G |---------------------------------|---------------------------------|
D |---------------------------------|---------------------------------|
A |---------------------------------|---------------------0-0-1-1-2-3-|
E |-3---3---3-3-3-3-3---3-3---3-3-3-|-3-3-3---3-3-3-3-3-3-------------|
  1  &  2  &  3  &  4  &   1  &  2  &  3  &  4  &


GUITAR SOLO:

G |---------5-----------5-5-----5-5-|---------5-----------5-5-----5-5-|
D |---------------------------------|---------------------------------|
A |(3)--3-3-----3-3---3-----3-3-----|-3---3-3-----3-3---3-----3-3-----|
E |---------------------------------|---------------------------------|
  1  &  2  &  3  &  4  &   1  &  2  &  3  &  4  &

G |---------5-----------5-5-----5-5-|---------5-----------------------|
D |---------------------------------|---------------------2-2-3-3-4-5-|
A |-3---3-3-----3-3---3-----3-3-----|-3---3-3-----3-3-3-3-------------|
E |---------------------------------|---------------------------------|
  1  &  2  &  3  &  4  &   1  &  2  &  3  &  4  &

G |---------5-----------5-5-----5-5-|---------5-----------5-5-----5-5-|
D |---------------------------------|---------------------------------|
A |-3---3-3-----3-3---3-----3-3-----|-3---3-3-----3-3---3-----3-3-----|
E |---------------------------------|---------------------------------|
  1  &  2  &  3  &  4  &   1  &  2  &  3  &  4  &

G |---------5-----------5-5-----5-5-|---------------------2-2-3-3-4-5-|
D |---------------------------------|-----2-2-3-3-4-4-5-5-------------|
A |-3---3-3-----3-3---3-----3-3-----|-3-3-----------------------------|
E |---------------------------------|---------------------------------|
  1  &  2  &  3  &  4  &   1  &  2  &  3  &  4  &


CHORUS 3:

G |---------3---------------7-------|---------5-----------------------|
D |---------------------------------|---------------------------------|
A |-1---1-1-----1-1/5---5-5-----5-5-|-3---3-3-----3-3/7---7-5---5-3-\-|
E |---------------------------------|---------------------------------|
  1  &  2  &  3  &  4  &   1  &  2  &  3  &  4  &

G |---------3---------------7-------|---------5-----------------------|
D |---------------------------------|---------------3---2---3---2-----|
A |-1---1-1-----1-1/5---5-5-----5-5-|-3---3-3-----3---------------3-3-|
E |---------------------------------|---------------------------------|
  1  &  2  &  3  &  4  &   1  &  2  &  3  &  4  &

G |---------3---------------7-------|---------5-----------------------|
D |---------------------------------|---------------------------------|
A |-1---1-1-----1-1/5---5-5-----5-5-|-3---3-3-----3-3/7---7-5---5-3-\-|
E |---------------------------------|---------------------------------|
  1  &  2  &  3  &  4  &   1  &  2  &  3  &  4  &

G |---------------------------------|---------------------------------|
D |---------------------------------|---------------------------------|
A |---------------------------------|---------------------------------|
E |-3---3---3-3-3-3-3---3-3---3-3-3-|-3---3-----3---3-3---3-3---3-3-3-|
  1  &  2  &  3  &  4  &   1  &  2  &  3  &  4  &

G |---------------------------------|---------------------------------|
D |-------5---5-2-5-------5---5-2-5-|---------------------------------|
A |---------------------------------|-------0---0-0-1---1-1-2---2-2-3-|
E |-3---------------3---------------|-3---3---------------------------|
  1  &  2  &  3  &  4  &   1  &  2  &  3  &  4  &


BRIDGE, Part 1:

G |---------------------------------|---------------------------------|
D |---------------------------------|---------------------------------|
A |(3)----------------------------3-|-(3)---------------------------3-|
E |---------------------------3-5---|---------------------------3-5---|
  1  &  2  &  3  &  4  &   1  &  2  &  3  &  4  &

                           !   !   !
G |---------------------------------|---------------------------------|
D |---------------------------------|---------------------------------|
A |(3)------------3---------------3-|(3)--------------0-----1-----2---|
E |-----------3-5-------------3-5---|---------------------------------|
  1  &  2  &  3  &  4  &   1  &  2  &  3  &  4  &

  !
G |---------------------------------|---------------------------------|
D |---------------------------------|---------------------------------|
A |-3-----------------------------3-|-(3)---------------------------3-|
E |---------------------------3-5---|---------------------------3-5---|
  1  &  2  &  3  &  4  &   1  &  2  &  3  &  4  &

G |---------------------------------|---------------------------------|
D |---------------------------------|---------2---2-3---3-3-3-4---4-5-|
A |(3)------------3---------------3-|(3)--3-3-------------------------|
E |-----------3-5-------------3-5---|---------------------------------|
  1  &  2  &  3  &  4  &   1  &  2  &  3  &  4  &

(Part 2):

G |---------5---------------5-------|---------5---------------5-------|
D |---------------------------------|---------------------------------|
A |-3---3-3-----3-3---3-3-3-----3-3-|-3---3-3-----3-3---3-3-3-----3-3-|
E |---------------------------------|---------------------------------|
  1  &  2  &  3  &  4  &   1  &  2  &  3  &  4  &

G |---------5---------------5-------|---------5-----------------------|
D |---------------------------------|---------------------------------|
A |-3---3-3-----3-3---3-3-3-----3-3-|-3---3-3-----3-3-3-3-0-0-1-1-2-2-|
E |---------------------------------|---------------------------------|
  1  &  2  &  3  &  4  &   1  &  2  &  3  &  4  &

G |---------5---------------5-------|---------5---------------5-------|
D |---------------------------------|---------------------------------|
A |-3---3-3-----3-3---3-3-3-----3-3-|-3---3-3-----3-3---3-3-3-----3-3-|
E |---------------------------------|---------------------------------|
  1  &  2  &  3  &  4  &   1  &  2  &  3  &  4  &

G |---------5---------------5-------|---------------------2-2-3-3-4-5-|
D |---------------------------------|-----2-2-3-3-4-4-5-5-------------|
A |-3---3-3-----3-3---3-3-3-----3-3-|-3-3-----------------------------|
E |---------------------------------|---------------------------------|
  1  &  2  &  3  &  4  &   1  &  2  &  3  &  4  &


SYNTH INTERLUDE:

G |(5)------5---------------5-------|---------5---------------5-------|
D |---------------------------------|---------------------------------|
A |-----3-3-----3-3---3-3-3-----3-3-|-3---3-3-----3-3---3-3-3-----3-3-|
E |---------------------------------|---------------------------------|
  1  &  2  &  3  &  4  &   1  &  2  &  3  &  4  &

G |---------5---------------5-------|---------5-----------------------|
D |---------------------------------|---------------------------------|
A |-3---3-3-----3-3---3-3-3-----3-3-|-3---3-3-----3-3---3-0-0-1-1-2-2-|
E |---------------------------------|---------------------------------|
  1  &  2  &  3  &  4  &   1  &  2  &  3  &  4  &

G |---------5---------------5-------|---------5---------------5-------|
D |---------------------------------|---------------------------------|
A |-3---3-3-----3-3---3-3-3-----3-3-|-3---3-3-----3-3---3-3-3-----3-3-|
E |---------------------------------|---------------------------------|
  1  &  2  &  3  &  4  &   1  &  2  &  3  &  4  &

G |---------5---------------5-------|---------5-----------------------|
D |---------------------------------|---------------------------------|
A |-3---3-3-----3-3---3-3-3-----3-3-|-3---3-3-----3-3-3-3-0-0-1-1-2-2-|
E |---------------------------------|---------------------------------|
  1  &  2  &  3  &  4  &   1  &  2  &  3  &  4  &

(Part 2):

G |---------5---------------5-------|---------5---------------5-------|
D |---------------------------------|---------------------------------|
A |-3---3-3-----3-3---3-3-3-----3-3-|-3---3-3-----3-3---3-3-3-----3-3-|
E |---------------------------------|---------------------------------|
  1  &  2  &  3  &  4  &   1  &  2  &  3  &  4  &

G |---------5---------------5-------|---------5-----------------------|
D |---------------------------------|---------------------------------|
A |-3---3-3-----3-3---3-3-3-----3-3-|-3---3-3-----3-3-3-3-0-0-1-1-2-2-|
E |---------------------------------|---------------------------------|
  1  &  2  &  3  &  4  &   1  &  2  &  3  &  4  &

G |---------5---------------5-------|---------5---------------5-------|
D |---------------------------------|---------------------------------|
A |-3---3-3-----3-3---3-3-3-----3-3-|-3---3-3-----3-3---3-3-3-----3-3-|
E |---------------------------------|---------------------------------|
  1  &  2  &  3  &  4  &   1  &  2  &  3  &  4  &

G |---------5---------------5-------|---------------------------------|
D |---------------------------------|---------2-2-2-2-3-3-3-3-4-4-5---|
A |-3---3-3-----3-3---3-3-3-----3-3-|-3-3-3-3-----------------------3-|
E |---------------------------------|---------------------------------|
  1  &  2  &  3  &  4  &   1  &  2  &  3  &  4  &


GUITAR SOLO 2, Part 1:

G |---------5-----------5-5-----5-5-|---------5-----------5-5-----5-5-|
D |---------------------------------|---------------------------------|
A |(3)--3-3-----3-3---3-----3-3-----|-3---3-3-----3-3---3-----3-3-----|
E |---------------------------------|---------------------------------|
  1  &  2  &  3  &  4  &   1  &  2  &  3  &  4  &

G |---------5-----------5-5-----5-5-|---------5---------------------5-|
D |---------------------------------|---------------------2-2-3-3-5---|
A |-3---3-3-----3-3---3-----3-3-----|-3---3-3-----3-3-3-3-------------|
E |---------------------------------|---------------------------------|
  1  &  2  &  3  &  4  &   1  &  2  &  3  &  4  &

G |---------5-----------5-5-----5-5-|---------5-----------5-5-----5-5-|
D |---------------------------------|---------------------------------|
A |-3---3-3-----3-3---3-----3-3-----|-3---3-3-----3-3---3-----3-3-----|
E |---------------------------------|---------------------------------|
  1  &  2  &  3  &  4  &   1  &  2  &  3  &  4  &

G |---------5-----------5-5-----5-5-|---------5-----------------------|
D |---------------------------------|---------------------2-2-3-3-4-5-|
A |-3---3-3-----3-3---3-----3-3-----|-3---3-3-----3-3-3-3-------------|
E |---------------------------------|---------------------------------|
  1  &  2  &  3  &  4  &   1  &  2  &  3  &  4  &

(Part 2):

G |---------5-----------5-5-----5-5-|---------5-----------5-5-----5-5-|
D |---------------------------------|---------------------------------|
A |-3---3-3-----3-3---3-----3-3-----|-3---3-3-----3-3---3-----3-3-----|
E |---------------------------------|---------------------------------|
  1  &  2  &  3  &  4  &   1  &  2  &  3  &  4  &

G |---------5-----------5-5-----5-5-|---------5---------10-9----10-9-----|
D |---------------------------------|------------------------10------10\-|
A |-3---3-3-----3-3---3-----3-3-----|-3---3-3-----3-3-r------------------|
E |---------------------------------|------------------------------------|
  1  &  2  &  3  &  4  &   1  &  2  &  3  &  4  &

G |---------5---------5-----5-5-----|---------5-----------5-5-----5-5-|
D |---------------------------------|---------------------------------|
A |-3---3-3-----3-3-----3-3-----3-3-|-3---3-3-----3-3---3-----3-3-----|
E |---------------------------------|---------------------------------|
  1  &  2  &  3  &  4  &   1  &  2  &  3  &  4  &

G |---------5-----------5-5-----5-5-|---------------------------------|
D |---------------------------------|---------2-2-2-2-3-3-3-3-4-4-5---|
A |-3---3-3-----3-3---3-----3-3-----|-3-3-3-3-----------------------3-|
E |---------------------------------|---------------------------------|
  1  &  2  &  3  &  4  &   1  &  2  &  3  &  4  &


OUTRO, Part 1:

G |---------5---------------5-------|---------5---------------5-------|
D |---------------------------------|---------------------------------|
A |(3)--3-3-----3-3---3-3-3-----3-3-|-3---3-3-----3-3---3-3-3-----3-3-|
E |---------------------------------|---------------------------------|
  1  &  2  &  3  &  4  &   1  &  2  &  3  &  4  &

G |---------5---------------5-------|---------5-----------------------|
D |---------------------------------|---------------------------------|
A |-3---3-3-----3-3---3-3-------3-3-|(3)--3-3-----3-3-3-3-0-0-1-1-2-2-|
E |---------------------------------|---------------------------------|
  1  &  2  &  3  &  4  &   1  &  2  &  3  &  4  &

G |---------5---------------5-------|---------5---------------5-------|
D |---------------------------------|---------------------------------|
A |-3---3-3-----3-3---3-3-3-----3-3-|-3---3-3-----3-3---3-3-3-----3-3-|
E |---------------------------------|---------------------------------|
  1  &  2  &  3  &  4  &   1  &  2  &  3  &  4  &

G |---------5---------------5-------|---------5-----------------------|
D |---------------------------------|---------------------------------|
A |-3---3-3-----3-3-----3-3-----3-3-|(3)--3-3-----3-3-3-3-0-0-1-1-2-2-|
E |---------------------------------|---------------------------------|
  1  &  2  &  3  &  4  &   1  &  2  &  3  &  4  &

(Part 2):

G |---------5---------------5-------|---------5---------------5-------|
D |---------------------------------|---------------------------------|
A |-3---3-3-----3-3---3-3-3-----3-3-|-3---3-3-----3-3---3-3-3-----3-3-|
E |---------------------------------|---------------------------------|
  1  &  2  &  3  &  4  &   1  &  2  &  3  &  4  &

G |---------5---------------5-------|---------5-----------------------|
D |---------------------------------|---------------------------------|
A |-3---3-3-----3-3-----3-3-----3-3-|(3)--3-3-----3-3-3-3-0-0-1-1-2-2-|
E |---------------------------------|---------------------------------|
  1  &  2  &  3  &  4  &   1  &  2  &  3  &  4  &

G |---------5---------------5-------|---------5---------------5-------|
D |---------------------------------|---------------------------------|
A |-3---3-3-----3-3---3-3-3-----3-3-|-3---3-3-----3-3---3-3-3-----3-3-|
E |---------------------------------|---------------------------------|
  1  &  2  &  3  &  4  &   1  &  2  &  3  &  4  &

  (rit.)
G |---------------------------------|---------------------------------|
D |---------------------------------|---------------------------------|
A |-1-------------------------------|---------------------------------|
E |---------------------------------|-1-------------------------------|
  1  &  2  &  3  &  4  &   1  &  2  &  3  &  4  &

  (refer to song for timing)
G |---------------------------------|---------------------------------|
D |---------------------------------|---------------------------------|
A |-3-------3-3-3-3-3-3-3-3-3-3-3-3-|-3-3-3-3-3-3-3-3-3---------------|
E |---------------------------------|---------------------------------|
  1  &  2  &  3  &  4  &   1  &  2  &  3  &  4  &

Roll With The Changes bass tab

Reo Speedwagon bass tabs for Roll with the changes "Roll With the Changes" is a song from Reo Speedwagon's "You Can Tune a Piano, but You Can't Tuna Fish" album. Bass is played by Bruce Hall.

Almost there ...

Sign in to get your own page with links to favourite songs and more. You are just one click away...

Login with Facebook Login with Google