Log in

One click and you are in

Login with Facebook Login with Google

Why sign up and log in

Guitar Tabs Explorer
Reo Speedwagon bass tabs for I don t wanna lose you

I Don T Wanna Lose You bass tab by Reo Speedwagon

Reo Speedwagon bass tabs for I don t wanna lose you

Bass tabs

I Don't Want to Lose You
REO Speedwagon


Intro
G|----------------------------------------
D|----------------------------------------
A|-5--2--3----5--2--3---------------------
E|----------------------------------------
Verse 1(2x) and 2(1x)
G|----------------------------------------
D|----------------------------------------
A|-9/5--9/2--9/3----9/5--9/2--9-----------
E|----------------------------------------


Chorus
G|---------------------------------------- 2x
D|----------------------------------------
A|-5--2--3---5--2--3/9875--2--3---5--2--3-
E|----------------------------------------

G|----------------------------------------
D|----------------------------------------
A|-55555555222222223----------------------
E|----------------------------------------


Verse 3-2x
G|----------------------------------------
D|----------------------------------------
A|-55555555222222223333333355555555-------
E|----------------------------------------


Solo/Ending-play until fade out
G|----------------------------------------
D|----------------------------------------
A|-5--2--3---5--2--3/9875--2--3---5--2--3-
E|----------------------------------------

Almost there ...

Sign in to get your own page with links to favourite songs and more. You are just one click away...

Login with Facebook Login with Google