Log in

One click and you are in

Login with Facebook Login with Google

Why sign up and log in

Guitar Tabs Explorer
Reo Speedwagon bass tabs for Follow my heart

Bass tabs

Difficulty: Beginner

REO speedwagon - Follow my heart

G-----------------------------------------------------------------------------|
D-----------------------------------------------------------------------------|
A-----0-0-0-0-0-0-0-0-0-------------------------------------------------------|
E-----------------------------------------------------------------------------|

G-----------------------------------------------------------------------------|
D-----------------------------------------------------------------------------|
A------0-3-0-0-3-0-/5-7-8----------------------5-55-7-77-0-0------------------|
E--------------------------------(4x)-----------------------------(1x)--------| (2x)


(0.51)
G-----------------------------------------------------------------------------|
D---------------333-----------------------------------------------------------|
A----5-55-1-111-----5-555--------------1-11--3-33-----------1-11-1-11--3------|
E----------------------------(2x)-------------------(2x)------------------(1x)|


(1.10)
G-----------------------------------------------------------------------------|
D-----------------------------------------------------------------------------|
A------0-3-0-0-3-0-/5-7-8----------------------5-55-7-77-0-0------------------|
E--------------------------------(4x)-----------------------------(1x)--------| (2x)


G-----------------------------------------------------------------------------|
D---------------333-----------------------------------------------------------|
A----5-55-1-111-----5-555--------------1-11--3-33-----------1-11-1-11--3------|
E----------------------------(2x)-------------------(2x)------------------(1x)|

(2.08)
G-----------------------------------------------------------------------------|
D-----------------------------------------------------------------------------|
A----0-0-0-0-0-0-0-0-0-0-0-0-0-0-0-0-0-0-0-0----------------------------------|
E-----------------------------------------------------------------------------|


(2.28)
G-----------------------------------------------------------------------------|
D-----------------------------------------------------------------------------|
A------0-3-0-0-3-0-/5-7-8----------------------5-55-7-77-0-0------------------|
E--------------------------------(4x)-----------------------------(1x)--------|


G-----------------------------------------------------------------------------|
D---------------333-----------------------------------------------------------|
A----5-55-1-111-----5-555--------------1-11--3-33-----------1-11-1-11--3------|
E----------------------------(2x)-------------------(2x)------------------(1x)| (2x)


G-----------------------------------------------------------------------------|
D---------------333-----------------------------------------------------------|
A----5-55-1-111-----5-555-----------------------------------------------------|
E-----------------------------------------------------------------------------|

Almost there ...

Sign in to get your own page with links to favourite songs and more. You are just one click away...

Login with Facebook Login with Google