The Nine Maidens by John Renbourn

The Nine Maidens tab by John Renbourn

Guitar tabs

Artist: John Renbourn
Title: The Nine Maidens
Album: The Nine Maidens
Tuning: DGDGA#d (Gm)

Verse:
   *   *   *   *   *   *   *   *   *
d |-----0------------|------------------|------------------|------------------|
A# |-----------0-2p0--|-----0-----0------|-----------0-2----|-0----------------|
G |-0h7---7p5-------2|-3p2-----2---2p0--|-----0---2-------2|-----0---2p0---0h2|
D |-------------0----|-------5---------3|-0h5---5-----3----|-5h7---5-----3----|
G |-0----------------|-0----------------|-0----------------|-------------2----|
D |------------------|-------------3----|------------------|-------------0----|

   *   *   *   *   *   *   *   *   *   *   *   *
d |-----0------------|------------------|-----------0-3----|---0---5-7-8-7----|
A# |-----------0-2p0--|-----0-----0------|-----0-----------2|/4-----------9p7--|
G |-0h7---7p5-------2|-3p2-----2---2----|---2---3-5---2----|-----0-----------7|
D |-------------0----|-------5---------3|-0----------------|-0-----------0----|
G |-0----------------|-0----------------|-0----------------|-0----------------|
D |------------------|------------------|-------------3----|------------------|

   *   *   *   *   *   *   *   *   *   *   *   *
d |-----------------0|-----------------0|-----0-----0-3----|---0---5-7-8-7----|
A# |-----9-----9------|-----7-----7------|-------0h2-------2|/4-----------9p7--|
G |-------10p7-------|-------9p7--------|---0---------2----|-----0-----------7|
D |---8---------8----|---7---------7h10-|------------------|-0-----------0----|
G |-0----------------|------------------|-0----------------|-0----------------|
D |------------------|-0----------------|-------------3----|------------------|

   *   *   *   *   *   *   *   *   *   *   *   *
d |-----------------0|-----------------0|-----0-----0-----0|-----0-----------0|
A# |-----9-----9------|-----7-----7------|-------0h2-----2--|-------2p0--------|
G |-------10p7-------|-------9p7--------|---0--------------|---0-------0-2----|
D |---8---------8----|---7---------7h10-|------------------|------------------|
G |-0----------------|------------------|-0----------------|------------------|
D |------------------|-0----------------|-------------3----|-1-----------0----|

   *   *   *   *   *   *   *   *   *
d |-----0------------|------------------|------------------|------------------|
A# |-----------0-2p0--|-----0-----0------|-----------0-2----|-0----------------|
G |-0h7---7p5-------2|-3p2-----2---2p0--|-----0---2-------2|-----0---2p0---0h2|
D |-------------0----|-------5---------3|-0h5---5-----3----|-5h7---5-----3----|
G |-0----------------|-0----------------|-0----------------|-------------2----|
D |------------------|-------------3----|------------------|-------------0----|

   *   *   *   *   *   *   *   *   *   *   *   *
d |-----0------------|------------------|-----------0-3----|---0---5-7-8-7----|
A# |-----------0-2p0--|-----0-----0------|-----0-----------2|/4-----------9p7--|
G |-0h7---7p5-------2|-3p2-----2---2----|---2---3-5---2----|-----0-----------7|
D |-------------0----|-------5---------3|-0----------------|-0-----------0----|
G |-0----------------|-0----------------|-0----------------|-0----------------|
D |------------------|------------------|-------------3----|------------------|

   *   *   *   *   *   *   *   *   *   *   *   *
d |-----------------0|-----------------0|-----0-----0-3----|---0---5-7-8-7----|
A# |-----9-----9------|-----7-----7------|-------0h2-------2|/4-----------9p7--|
G |-------10p7-------|-------9p7--------|---0---------2----|-----0-----------7|
D |---8---------8----|---7---------7h10-|------------------|-0-----------0----|
G |-0----------------|------------------|-0----------------|-0----------------|
D |------------------|-0----------------|-------------3----|------------------|

   *   *   *   *   *   *   *   *   *   *   *   *
d |-----------------0|-----------------0|-------0----------|-----------------0|
A# |-----9-----9------|-----7-----7------|-----9-----0---0--|-----0------------|
G |-------10p7-------|-------9p7--------|---0-------------0|---2-----2h0-2----|
D |---8---------8----|---7---------7h10-|---------10---7---|-0-----------0----|
G |-0----------------|------------------|-0----------------|-------5----------|
D |------------------|-0----------------|------------------|------------------|

   *   *   *   *   *   *   *   *   *   *   *   *
d |-----------------0|------------------|------------------|------------------|
A# |---0-----2---0h2--|------------------|-----------0-2----|-0----------------|
G |-----0-----2------|---------2p0------|-----0---2-------2|-----0---2p0---0h2|
D |-7-----5----------|-----0-5-------3p0|-0h5---5-----3----|-5h7---5-----3----|
G |-------------0----|-3h5--------------|-0----------------|-------------2----|
D |------------------|-------------0----|------------------|-------------0----|

   *   *   *   *   *   *   *   *   *   *   *   *
d |-----------------0|------------------|------------------|---0---5-7-8-7----|
A# |---0-----2---0h2--|------------------|-----------0-2----|-4-----------9p7--|
G |-----0-----2------|---------2p0------|-----0---2-------2|-----0-----------7|
D |-7-----5----------|-----0-5-------3p0|-0h5---5-----3----|-0-----------0----|
G |-------------0----|-3h5--------------|-0----------------|-0----------------|
D |------------------|-------------0----|------------------|------------------|

   *   *   *   *   *   *   *   *   *   *   *   *
d |-------5---5------|-------3---3------|-------0---3-----3|-----0-----------0|
A# |------------------|------------------|------------------|-0h2-----------7--|
G |---0h3---3-----3--|---0h2---2-----2--|---0h3---3-----2--|------------------|
D |-------------0---0|-------------0---0|------------------|-----------0------|
G |-0----------------|------------------|-0----------------|-0-----3h5--------|
D |------------------|-0----------------|-------------3----|-------------0----|

   *   *   *   *   *   *   *   *   *   *   *   *
d |-------5---5------|-------3---3------|-------0---3-----3|-------0----------|
A# |------------------|------------------|------------------|---0h2-0h2-0-2----|
G |---0h3---3-----3--|---0h2---2-----2--|---0h3---3-----2--|---0h2-0h2-0-2----|
D |-------------0---0|-------------0---0|------------------|-----------------3|
G |-0----------------|------------------|-0----------------|------------------|
D |------------------|-0----------------|-------------3----|-1-----------3----|

   *   *   *   *   *   *   *   *   *   *   *   *
d |------------------|-----------------0|---0---3p0--------|------------------|
A# |-----------------0|-----------0---2--|-----4-----4-2----|-0----------------|
G |-0---0---2p0---2--|-----0---2--------|-0---------------2|-----0---2p0---0h2|
D |-0h5---5-----5----|-0h5---5-----3----|-------------3----|-5h7---5-----3----|
G |-0----------------|-0----------------|------------------|-------------2----|
D |------------------|------------------|------------------|-------------0----|

   *   *   *   *   *   *   *   *   *   *   *   *
d |------------------|-----------------0|---0---5p0---3----|---0---5-7-8-7----|
A# |-----------------0|-----------0---2--|-----4-----0-----2|/4-----------9p7--|
G |-0---0---2p0---2--|-----0---2--------|-0-----------2----|-----0-----------7|
D |-0h5---5-----5----|-0h5---5-----3----|------------------|-0----------------|
G |-0----------------|-0----------------|------------------|-0----------------|
D |------------------|------------------|-------------3----|------------------|

   *   *   *   *   *   *   *   *   *   *   *   *
d |-----8p0---0-----0|-----7p0---0-----0|-----5p0---0-3----|---0---5-7-8-7---- |
A# |------------------|------------------|-----------------2|-4-----------9p7--|
G |---7-----7---5h7--|---7-----7---5h7--|---3-----3---2----|-----0-5---------7|
D |------------------|------------------|------------------|-0----------------|
G |-0----------------|------------------|-0----------------|-0----------------|
D |------------------|-0----------------|-------------3----|------------------|


   *   *   *   *   *   *   *   *   *   *   *   *
d |-------8---8------|-------7---7------|-------5---5-----3|-----0------------|
A# |---0--------------|---0--------------|------------------|-------2p0--------|
G |-----7---7-----7--|-----5---5-----5--|---0h3---3-----2--|---0-------0-2----|
D |-------------0---0|-------------0---0|------------------|-----------------0|
G |-0----------------|------------------|-0----------------|------------------|
D |------------------|-0----------------|-------------3----|-1-----------3----|

   *   *   *   *   *   *   *   *   *   *   *   *
d |------------------|-----0------------|------------------|------------------|
A# |-----0------------|-------2p0--------|-----0------------|-----0---0--------|
G |---------0-------0|---0-------0-----2|---------0---2h3-2|-0h2-------0-2----|
D |---0--h5---5---0--|---------------0--|---0--h5---5-0----|-0---------------0|
G |-0----------------|------------------|-0----------------|-------5----------|
D |-------------3----|-1-----------3----|------------------|-------------3----|

   *   *   *   *   *   *   *   *   *   *   *   *
d |------------------|-----0-----0-----0|----5-------------|-------0----------|
A# |-----0------------|-------0h2--------|----4-------------|---0h2-0h2p0-2----|
G |---------0-------0|---0-----------0--|----0-------------|---0h2-0h2p0-2----|
D |---0--h5---5---0--|------------------|-0-------5p3-5p3p0|-----------------3|
G |-0----------------|------------------|-0----------------|------------------|
D |-------------3----|-1-----------3----|------------------|-1-----------3----|

   *   *   *   *   *   *   *   *   *   *   *   *
d |----5-------------|----7---7h10p7----|----8-------10p8-0|----5-------------|
A# |----4-------------|----7----------7--|-9-------9--------|----5-----------0-|
G |----0-------------|----7------------7|-7---------7------|----5----6/7------|
D |-0-------5p3-5p3p0|------------------|------------------|----5--------0----|
G |-0----------------|/7-----7----------|-------0----------|-5-----5----------|
D |------------------|------------------|------------------|------------------|

   *   *   *   *   *   *   *   *   *   *   *   *
d |---------7h8------|----7---7h10p7----|-------0----------|------------------|
A# |----9--------9p7--|----7----------7--|-----9-----0---0--|------------------|
G |----7------------7|----7------------7|---0-------------0|-0--0-------------|
D |------------------|------------------|---------10--7----|----------3--0----|
G |-0-----0----------|-7-----7----------|-0----------------|-5--5-----------3-|
D |------------------|------------------|------------------|------------------|

   *   *   *   *   *   *   *   *   *   *   *   *
d |------------------|-----0------------|------------------|------------------|
A# |-----0------------|-------2p0--------|-----0------------|-----0---0--------|
G |---------0-------0|---0-------0-----2|---------0---2h3-2|-0h2-------0-2----|
D |---0--h5---5---0--|---------------0--|---0--h5---5-0----|-0---------------0|
G |-0----------------|------------------|-0----------------|-------5----------|
D |-------------3----|-1-----------3----|------------------|-------------3----|

   *   *   *   *   *   *   *   *   *   *   *   *
d |------------------|-----0-----0-----0|----5-------------|------------------|
A# |-----0------------|-------0h2--------|----4-------------|---0h2-0h2p0-2----|
G |---------0-------0|---0-----------0--|----0-------------|---0h2-0h2p0-2----|
D |---0--h5---5---0--|------------------|-0-------5p3-5p3p0|-----------------3|
G |-0----------------|------------------|-0----------------|------------------|
D |-------------3----|-1-----------3----|------------------|-1-----------3----|

   *   *   *   *   *   *   *   *   *   *   *   *
d |----5-------------|----7---7h10p7----|----8-------10p8-0|----5-------------|
A# |----4-------------|----7----------7--|-9-------9--------|----5-----------0-|
G |----0-------------|----7------------7|-7---------7------|----5----6/7------|
D |-0-------5p3-5p3p0|------------------|------------------|----5--------0----|
G |-0----------------|/7-----7----------|-------0----------|-5-----5----------|
D |------------------|------------------|------------------|------------------|

   *   *   *   *   *   *   *   *   *   *   *   *
d |---------7h8------|----7---7h10p7----|-------0----------|-----------------0|
A# |----9--------9p7--|----7----------7--|-----9-----0---0--|-----0------------|
G |----7------------7|----7------------7|---0-------------0|---2-----2p0-2----|
D |------------------|------------------|---------10--7----|-0-----------0----|
G |-0-----0----------|-7-----7----------|-0----------------|-------5----------|
D |------------------|------------------|------------------|------------------|

   *   *   *   *   *   *   *   *   *
d |-----0------------|------------------|------------------|------------------|
A# |-----------0-2p0--|-----0-----0------|-----------0-2----|-0----------------|
G |-0h7---7p5-------2|-3p2-----2---2p0--|-----0---2-------2|-----0---2p0---0h2|
D |-------------0----|-------5---------3|-0h5---5-----3----|-5h7---5-----3----|
G |-0----------------|-0----------------|-0----------------|-------------2----|
D |------------------|-------------3----|------------------|-------------0----|

   *   *   *   *   *   *   *   *   *   *   *   *
d |-----0------------|------------------|-----------0-3----|---0---5-7-8-7----|
A# |-----------0-2p0--|-----0-----0------|-----0-----------2|/4-----------9p7--|
G |-0h7---7p5-------2|-3p2-----2---2----|---2---3-5---2----|-----0-----------7|
D |-------------0----|-------5---------3|-0----------------|-0-----------0----|
G |-0----------------|-0----------------|-0----------------|-0----------------|
D |------------------|------------------|-------------3----|------------------|

   *   *   *   *   *   *   *   *   *   *   *   *
d |-----------------0|-----------------0|-----0-----0-3----|---0---5-7-8-7----|
A# |-----9-----9------|-----7-----7------|-------0h2-------2|/4-----------9p7--|
G |-------10p7-------|-------9p7--------|---0---------2----|-----0-----------7|
D |---8---------8----|---7---------7h10-|------------------|-0-----------0----|
G |-0----------------|------------------|-0----------------|-0----------------|
D |------------------|-0----------------|-------------3----|------------------|

   *   *   *   *   *   *   *   *   *   *   *   *
d |-----------------0|-----------------0|-----0-----0-3---0|-----0-----------0|
A# |-----9-----9------|-----7-----7------|-------0h2-----2--|-------2p0--------|
G |-------10p7-------|-------9p7--------|---0---------2----|---0-------0-2----|
D |---8---------8----|---7---------7h10-|------------------|------------------|
G |-0----------------|------------------|-0----------------|------------------|
D |------------------|-0----------------|-------------3----|-1-----------0----|

   *   *   *   *   *   *   *   *   *
d ||-----0------------|------------------|------------------|------------------|
A# |-----------0-2p0--|-----0-----0------|-----------0-2----|-0----------------|
G |-0h7---7p5-------2|-3p2-----2---2p0--|-----0---2-------2|-----0---2p0---0h2|
D |-------------0----|-------5---------3|-0h5---5-----3----|-5h7---5-----3----|
G |-0----------------|-0----------------|-0----------------|-------------2----|
D |------------------|-------------3----|------------------|-------------0----|

   *   *   *   *   *   *   *   *   *   *   *   *
d |-----0------------|------------------|-----------0-3----|---0---5-7-8-7----|
A# |-----------0-2p0--|-----0-----0------|-----0-----------2|/4-----------9p7--|
G |-0h7---7p5-------2|-3p2-----2---2----|---2---3-5---2----|-----0-----------7|
D |-------------0----|-------5---------3|-0----------------|-0-----------0----|
G |-0----------------|-0----------------|-0----------------|-0----------------|
D |------------------|------------------|-------------3----|------------------|

   *   *   *   *   *   *   *   *   *   *   *   *
d |-----------------0|-----------------0|-----0-----0-3----|---0---5-7-8-7----|
A# |-----9-----9------|-----7-----7------|-------0h2-------2|/4-----------9p7--|
G |-------10p7-------|-------9p7--------|---0---------2----|-----0-----------7|
D |---8---------8----|---7---------7h10-|------------------|-0-----------0----|
G |-0----------------|------------------|-0----------------|-0----------------|
D |------------------|-0----------------|-------------3----|------------------|

   *   *   *   *   *   *   *   *   *   *   *   *
d |-------8---8------|-------7---7------|-------5---5-----3|-----0------------|
A# |------------------|------------------|------------------|-------2p0--------|
G |---0h7---7-----7--|-----5---5-----5--|---0h3---3-----2--|---0-------0-----2|
D |-------------0---0|---0---------0---0|------------------|---------------0--|
G |-0----------------|------------------|-0----------------|------------------|
D |------------------|-0----------------|-------------3----|-1-----------3----|

   *   *   *   *   *   *   *   *   *   *   *   *
d |------------------|------------------|-----------------0|------------------|
A# |---0h2-0-----2p0--|-----2-----0------|---0h2-0-----0h2--|-----2-----0------|
G |---0h2-0-----2p0--|---------0-------2|---0h2-0-----0h2--|---------0-------2|
D |---------0-------3|---3-----------0--|---------0--------|---3-----------0--| x2
G |-0---------0------|------------------|-0---------0------|------------------|
D |------------------|-0-----1-----3----|------------------|-0-----1-----3----|


   *   *   *   *   *   *   *   *   *   *   *   *
d |-----------------0|------------------|-------0-----0h3-0|------------------|
A# |---0h2-0-----0h2-0|-----2-----0------|---0h2-0-----0h2-0|-----2-----0------|
G |---0h2-0-----0h2--|---------0-------2|---0h2------------|---------0-------2|
D |---------0--------|---3-----------0--|---------0--------|---3-----------0--| x2
G |-0---------0------|------------------|-0---------0------|------------------|
D |------------------|-0-----1-----3----|------------------|-0-----1-----3----|

   *   *   *   *   *   *   *   *   *   *   *   *
d |-------0-----0h3-0|------------------|-------0-----5p3-0|------------------|
A# |---0h2-0-----0h2-0|-----2-----0------|---0h2-0-----2---0|-----2-----0------|
G |---0h2------------|---------0-------2|---0h2------------|---------0-------2|
D |---------0--------|---3-----------0--|---------0--------|---3-----------0--| x2
G |-0---------0------|------------------|-0---------0------|------------------|
D |------------------|-0-----1-----3----|------------------|-0-----1-----3----|

   *   *   *   *   *   *   *   *   *   *   *   *
d |-------0-----5p3-0|------------------|-------0-----5p3-0|------------------|
A# |---0h2-0-----2---0|-----2-----0------|---0h2-0-----2---0|-----2-----0------|
G |---0h2------------|---------0-------2|---0h2------------|---------0-------2|
D |---------0--------|---3-----------0--|---------0--------|---3-----------0--|
G |-0---------0------|------------------|-0---------0------|------------------|
D |------------------|-0-----1-----3----|------------------|-0-----1-----3----|

   *   *   *   *   *   *   *   *   *   *   *   *
d |-------0-----0h3-0|------------------|-------0-----5p3-0|------------------|
A# |---0h2-0-----0h2-0|-----2-----0------|---0h2-0-----2---0|-----2-----0------|
G |---0h2------------|---------0-------2|---0h2------------|---------0-------2|
D |---------0--------|---3-----------0--|---------0--------|---3-----------0--|
G |-0---------0------|------------------|-0---------0------|------------------|
D |------------------|-0-----1-----3----|------------------|-0-----1-----3----|


   *   *   *   *   *   *   *   *   *   *   *   *
d |-------0-----5p3-0|------------------|-------0-----0h3-0|------------------|
A# |---0h2-0-----2---0|-----2-----0------|---0h2-0-----0h2-0|-----2-----0------|
G |---0h2------------|---------0-------2|---0h2------------|---------0-------2|
D |---------0--------|---3-----------0--|---------0--------|---3-----------0--| x2
G |-0---------0------|------------------|-0---------0------|------------------|
D |------------------|-0-----1-----3----|------------------|-0-----1-----3----|

   *   *   *   *   *   *   *   *   *   *   *   *
d |-----------------0|------------------|-------0-----0h3-0|------------------|
A# |---0h2-0-----0h2-0|-----2-----0------|---0h2-0-----0h2-0|-----2-----0------|
G |---0h2-0-----0h2--|---------0-------2|---0h2------------|---------0-------2|
D |---------0--------|---3-----------0--|---------0--------|---3-----------0--|
G |-0---------0------|------------------|-0---------0------|------------------|
D |------------------|-0-----1-----3----|------------------|-0-----1-----3----|

   *   *   *   *   *   *   *   *   *   *   *   *
d |-------0-----0h3-0|------------------|-------0-----5p3-0|------------------|
A# |---0h2-0-----0h2-0|-----2-----0------|---0h2-0-----2---0|-----2-----0------|
G |---0h2------------|---------0-------2|---0h2------------|---------0-------2|
D |---------0--------|---3-----------0--|---------0--------|---3-----------0--|
G |-0---------0------|------------------|-0---------0------|------------------|
D |------------------|-0-----1-----3----|------------------|-0-----1-----3----|

   *   *   *   *   *   *   *   *   *   *   *   *
d |-----------------0|------------------|-------0-----0h3-0|------------------|
A# |---0h2-0-----0h2-0|-----2-----0------|---0h2-0-----0h2-0|-----2-----0------|
G |---0h2-0-----0h2--|---------0-------2|---0h2------------|---------0-------2|
D |---------0--------|---3-----------0--|---------0--------|---3-----------0--| x2
G |-0---------0------|------------------|-0---------0------|------------------|
D |------------------|-0-----1-----3----|------------------|-0-----1-----3----|

   *   *   *   *   *   *   *   *   *   *   *   *
d |-------0-----0h3-0|------------------|-------0-----5p3-0|------------------|
A# |---0h2-0-----0h2-0|-----2-----0------|---0h2-0-----2---0|-----2-----0------|
G |---0h2------------|---------0-------2|---0h2------------|---------0-------2|
D |---------0--------|---3-----------0--|---------0--------|---3-----------0--| x2
G |-0---------0------|------------------|-0---------0------|------------------|
D |------------------|-0-----1-----3----|------------------|-0-----1-----3----|

   *   *   *   *   *   *   *   *   *   *   *   *
d |-------0-----5p3-0|------------------|-------0-----5p3-0|------------------|
A# |---0h2-0-----2---0|-----2-----0------|---0h2-0-----2---0|-----2-----0------|
G |---0h2------------|---------0-------2|---0h2------------|---------0-------2|
D |---------0--------|---3-----------0--|---------0--------|---3-----------0--|
G |-0---------0------|------------------|-0---------0------|------------------|
D |------------------|-0-----1-----3----|------------------|-0-----1-----3----|

   *   *   *   *   *   *   *   *   *   *   *   *
d |-------0-----0h3-0|------------------|-------0-----5p3-0|------------------|
A# |---0h2-0-----0h2-0|-----2-----0------|---0h2-0-----2---0|-----2-----0------|
G |---0h2------------|---------0-------2|---0h2------------|---------0-------2|
D |---------0--------|---3-----------0--|---------0--------|---3-----------0--|
G |-0---------0------|------------------|-0---------0------|------------------|
D |------------------|-0-----1-----3----|------------------|-0-----1-----3----|

   *   *   *   *   *   *   *   *   *   *   *   *
d |-----------------0|------------------|-------0-----0h3-0|------------------|
A# |---0h2-0-----0h2-0|-----2-----0------|---0h2-0-----0h2-0|-----2-----0------|
G |---0h2-0-----0h2--|---------0-------2|---0h2------------|---------0-------2|
D |---------0--------|---3-----------0--|---------0--------|---3-----------0--| x2
G |-0---------0------|------------------|-0---------0------|------------------|
D |------------------|-0-----1-----3----|------------------|-0-----1-----3----|

   *   *   *   *   *   *   *   *   *   *   *   *
d |-------0-----0h3-0|------------------|-------0-----5p3-0|------------------|
A# |---0h2-0-----0h2-0|-----2-----0------|---0h2-0-----2---0|-----2-----0------|
G |---0h2------------|---------0-------2|---0h2------------|---------0-------2|
D |---------0--------|---3-----------0--|---------0--------|---3-----------0--|
G |-0---------0------|------------------|-0---------0------|------------------|
D |------------------|-0-----1-----3----|------------------|-0-----1-----3----|

   *   *   *   *   *   *   *   *   *   *   *   *
d |------------------|------------------|-------0-----0h3-0|------------------|
A# |---0h2-0-----2p0--|-2p0-------0------|---0h2-0-----0h2-0|-----2-----0------|
G |---0h2-0---------0|-----0---0-------2|---0h2------------|---------0-------2|
D |---------0--------|---------------0--|---------0--------|---3-----------0--|
G |-0---------0------|------------------|-0---------0------|------------------|
D |------------------|-0-----1-----3----|------------------|-0-----1-----3----|

   *   *   *   *   *   *
d |------------------|------------------|
A# |---0h2-0-----2p0--|-----------0------|
G |---0h2-0-----2p0-0|---3-2---2-------2|
D |---------0--------|-------5-----5-3--|
G |-0---------0------|------------------|
D |------------------|-0----------------|

   *   *   *   *   *   *   *   *   *   *   *   *
d |------------------|-----0------------|------------------|-----0-----0------|
A# |-----0------------|-------2p0--------|-----0------------|-------0h2--------|
G |---------0-------0|---0-------0-----2|---------0-------2|---0-------------2|
D |---0--h5---5---0--|---------------0--|---0--h5---5---0--|---------------0--|
G |-0----------------|------------------|-0----------------|------------------|
D |-------------3----|-1-----------3----|-------------3----|-1-----------3----|

   *   *   *   *   *   *   *   *   *   *   *   *
d |------------------|-----0-----0-----0|------------------|-----0-----0-----0|
A# |-----0------------|-------0h2--------|-----0------------|-------0h2--------|
G |---------0-------0|---0-----------0--|---------0-------2|---0-----------0--|
D |---0--h5---5---0--|------------------|---0--h5---5---0--|------------------| x8
G |-0----------------|------------------|-0----------------|------------------|
D |-------------3----|-1-----------3----|-------------3----|-1-----------3----|

   *   *   *   *   *   *   *   *   *   *   *   *
d |------------------|-----0-----0------|------------------|------------------|
A# |-----0------------|-------0h2--------|-----4------------|------------------|
G |---------0-------0|---0--------------|-----2------------|------------------|
D |---0--h5---5---0--|------------------|---0--------------|------------------|
G |-0----------------|------------------|------------------|------------------|
D |-------------3----|-1----------------|-0----------------|------------------|
            Slow down


***********************************

| *  Rythm
| h  Hammer-on
| p  Pull-off
| /  Slide up
| \  Slide down

Find guitar tabs and chords

A B C D E F G H I J K L M N O P Q R S T U V W X Y Z #