Log in

One click and you are in

Login with Facebook Login with Google

Why sign up and log in

Guitar Tabs Explorer
John Renbourn tabs for Bransle gay

Guitar tabs

with SMTP id <AA22995>; Mon, 12 Apr 1993 10:39:03 -0700
	id AA21762; Mon, 12 Apr 93 10:38:58 -0700


>From the acoustic guitar mailing list...

Title:BRANSLE GAY
Notes:Written by Claude Gervais (16th Century) Recorded by John Renbourne
      Transcribed from JR's recording and published by Michael Raven
      (Typed in by Kev on his lunch hour - YOUR turn next)

Tuning:EADGBE

-||----------------------|----------------------|-----0--1--3-----------|---
-||----------------------|--------0h1--3-----3--|--3--|--|--|-----------|---
-||-*--0-----0--0-----0--|--0--2---|---|--0--|--|--|--0--2--0-----------|---
-||-*--|--0-----|--2-----|--|-----0h2--3-----3--|--3--------|-----------|---
-||----|--------3--------|--|-------------------|-----------|--0--2--3--|---
-||----3-----------------|--3-------------------|-----------3-----------|---


--1--3--0-----------|--------------------|----------------------|-----------
--|-----|--3-----3--|--------------------|--------0h1--3-----3--|-----------
--|-----|--|--0-----|--0-----0--0-----0--|--0--2---|---|--0--|--|-----------
--0-----|--0--------|--|--0-----|--2-----|--|-----0h2--3-----3--|-----------
--------3-----------|--|--------3--------|--|-------------------|-----------
--------------------|--3-----------------|--3-------------------|-----------


-------------------|----------------||----||----3-----3--1-----0--|----------
--3s5--3--1--------|--0-----0-------||----||----|--3--|--|--1--|--|----------
---|---|--|--------|--|--0-----0--*-||----||-*--0-----0--2-----0--|----------
--3s5--3--2--3--0--|--|--------|--*-||----||-*--------------------|----------
-------------------|--|--------|----||----||----------------------|----------
-------------------|--3--------3----||----||----------------------|----------

                                                       D.C.
--5--3--1-----|--0--1--3--1--0-----|----------------||-----------------------
--3--1--|--3--|--|-----|--|-----3--|-1--0--1--3-----||-----------------------
--|--|--2-----|--|-----|--|--------|-2--------2---*-||-----------------------
--3--2--0-----|--|-----2--0--------|-|--------0---*-||-----------------------
--------------|--3-----------------|-0--------------||-----------------------
--------------|--------------------|----------------||-----------------------
--

Almost there ...

Sign in to get your own page with links to favourite songs and more. You are just one click away...

Login with Facebook Login with Google