Log in

One click and you are in

Login with Facebook Login with Google

Why sign up and log in

Guitar Tabs Explorer
R.E.M. bass tabs for Orange crush

Bass tabs

ORANGE CRUSH


On the tab, the slashes (5/7) are for hammer-ons


Verse:
G-----------------------------------------------------------|
D-----------------------------------------------------------|
A---------------------------------------4/5--5-5-5-----5/7--|
E---0-0-0---0-0-0----2/3--3-3-3-----------------------------|
                             ^song starts here


Chorus:
G--------------------------------------------------------------------------------------------|
D--2-2-2-2-2-2-2-2-----------------4--------------------------------------------------|
A--------------------2-2-2-2-2-2-2------------------------4--2-2-2-2-2-2-4-2----|
E-----------------------------------------2-2-2-2-2-2-2--------------------------------|

I strongly recommend playing this w/ a pick
Also, throwing some slides in between the parts
of the verse sounds cool

Almost there ...

Sign in to get your own page with links to favourite songs and more. You are just one click away...

Login with Facebook Login with Google