Log in

One click and you are in

Login with Facebook Login with Google

Why sign up and log in

Guitar Tabs Explorer
R.E.M. bass tabs for Fruity organ

Bass tabs

Tuning: Standard (E A D G)


Intro:

G|-------------|--------------|-------------|--------------|
D|----REST-----|----REST------|----REST-----|----REST------|
A|-------------|--------------|-------------|--------------|
E|-------------|--------------|-------------|--------------| x2:

Verse 1:

G|-------------|--------------|-------------|--------------|
D|-----------2-|-3--2-0---0-2-|-----------2-|-3--2--0------|
A|-----2-3-----|--------3-----|-----2-3-----|----------3---|
E|-3-----------|--------------|-3-----------|--------------| x4:


Chorus:

G|-------------|--------------|-------------|--------------|
D|-------------|--------------|-------0--2--|-0--0---0--2--|
A|-0---0---0---|-0---0---0--2-|-3--3--------|--------------|
E|-------------|--------------|-------------|--------------|

G|-------------|--------------|-------------|--------------|
D|-------------|--------------|-------0--2--|--0---0---0---|
A|-0---0---0---|-0---0---0--2-|-3--3--------|--------------|
E|-------------|--------------|-------------|--------------|

G|-------------|--------------|-------------|--------------|
D|-2--2--------|-0--0---------|-2--2--------|-0--0---------|
A|------0--0-0-|--------3-2-0-|------0--0-0-|--------3-2-0-|
E|-------------|--------------|-------------|--------------|

G|-------------|--------------|-------------|--------------|
D|-2--2--------|-0--0---------|-------0--2--|-0--0--0-2----|
A|------0--0-0-|--------3-2-0-|-3--3--------|--------------|
E|-------------|--------------|-------------|--------------|


Verse 2:

G|-------------|--------------|-------------|--------------|
D|-----------2-|-3--2-0---0-2-|-----------2-|-3--2--0------|
A|-----2-3-----|--------3-----|-----2-3-----|----------3---|
E|-3-----------|--------------|-3-----------|--------------| x4:


Chorus:

G|-------------|--------------|-------------|--------------|
D|-------------|--------------|-------0--2--|-0--0---0--2--|
A|-0---0---0---|-0---0---0--2-|-3--3--------|--------------|
E|-------------|--------------|-------------|--------------|

G|-------------|--------------|-------------|--------------|
D|-------------|--------------|-------0--2--|--0---0---0---|
A|-0---0---0---|-0---0---0--2-|-3--3--------|--------------|
E|-------------|--------------|-------------|--------------|

G|-------------|--------------|-------------|--------------|
D|-2--2--------|-0--0---------|-2--2--------|-0--0---------|
A|------0--0-0-|--------3-2-0-|------0--0-0-|--------3-2-0-|
E|-------------|--------------|-------------|--------------|

G|-------------|--------------|-------------|--------------|
D|-2--2--------|-0--0---------|-------0--2--|-0--0--0-2----|
A|------0--0-0-|--------3-2-0-|-3--3--------|--------------|
E|-------------|--------------|-------------|--------------|


Verse 3:

G|-------------|--------------|-------------|--------------|
D|-----------2-|-3--2-0---0-2-|-----------2-|-3--2--0------|
A|-----2-3-----|--------3-----|-----2-3-----|----------3---|
E|-3-----------|--------------|-3-----------|--------------| x4:


Chorus:

G|-------------|--------------|-------------|--------------|
D|-------------|--------------|-------0--2--|-0--0---0--2--|
A|-0---0---0---|-0---0---0--2-|-3--3--------|--------------|
E|-------------|--------------|-------------|--------------|

G|-------------|--------------|-------------|--------------|
D|-------------|--------------|-------0--2--|--0---0---0---|
A|-0---0---0---|-0---0---0--2-|-3--3--------|--------------|
E|-------------|--------------|-------------|--------------|

G|-------------|--------------|-------------|--------------|
D|-2--2--------|-0--0---------|-2--2--------|-0--0---------|
A|------0--0-0-|--------3-2-0-|------0--0-0-|--------3-2-0-|
E|-------------|--------------|-------------|--------------|

G|-------------|--------------|-------------|--------------|
D|-2--2--------|-0--0---------|-------0--2--|-0--0--0--0-0-|
A|------0--0-0-|--------3-2-0-|-3--3--------|--------------|
E|-------------|--------------|-------------|--------------|

G|-------------|--------------|-------------|--------------|
D|-2--2--------|-0--0---------|-2--2--------|-0--0---------|
A|------0--0-0-|--------3-2-0-|------0--0-0-|--------3-2-0-|
E|-------------|--------------|-------------|--------------|

G|-------------|--------------|-------------|--------------|
D|-2--2--------|-0--0---------|-------0--2--|-0--0--0---2--|
A|------0--0-0-|--------3-2-0-|-3--3--------|--------------|
E|-------------|--------------|-------------|--------------|


Outro:

G|-------------|
D|-----0--2-3--|
A|---2---------|
E|-3-----------|
ⓘ Bass guitar tab for 'Fruity Organ' by R.E.M., a rock band formed in 1980 from Athens, USA. They retired in 2011. R.E.M. was known for their moody rock/pop music.

Almost there ...

Sign in to get your own page with links to favourite songs and more. You are just one click away...

Login with Facebook Login with Google