Log in

One click and you are in

Login with Facebook Login with Google

Why sign up and log in

Guitar Tabs Explorer
R.E.M. bass tabs for Exhuming mccarthy

Bass tabs

REM
EXHUMING MCCARTHY (Bass Tab)
Intro:

G----------------------------------------------------
D----------------------------------------------------
A-------4-4-34------4-4-34-------4-4-34------4-4-34--
E-4--4---------4--4---------4--4--------4--4---------


Verse: "Sharpening Stones, Walking on Coals..."

G-----------------------------------------------------------------
D-----------------------------------------------------------------
A--------0-2-4---0-2-4--------0-2-4---0-2-4-------0-2-4---0-2-4---
E--2---2----------------2---2----------------2--2----------------2


Chorus: "Enemy Sighted, Enemy Met..."

G-----------------------------------------------------
D-----------------------------------------------------
A-------4-4-34-------4-4-34-------4-4-34-------4-4-34-
E-4--4----------4--4---------4--4---------4--4--------


Bridge:

G----------------------------------------
D----------------------------------------
A-3-3-3-3--1-1-1-1--3-3-3-3--1-1-1-1----- repeats (You can even improvise
E----------------------------------------      something here)

G-------------------------
D--3---1------------------
A-----------4---2---------
E-------------------------

The Song Ends With the Same Bass Line as in the "Verse" Portion.

Almost there ...

Sign in to get your own page with links to favourite songs and more. You are just one click away...

Login with Facebook Login with Google