Log in

One click and you are in

Login with Facebook Login with Google

Why sign up and log in

Guitar Tabs Explorer
Relient K bass tabs for Girl s x boyfriend

Bass tabs

Tabbed by: Ribsonbass@aol.com


Tuning: e,a,d,g

intro
g|--------------------------------------------|
d|--------------------------------------------|
a|---------3-3--------------------------------|x3
e|1-11-111----333-----------------------------|

g|--------------------------------------------|
d|--------------------------------------------|
a|--------------------------------------------|
e|1-1111111-33333333--------------------------|


verse
g|--------------------------------------------|
d|--------------------------------------------|
a|----------------3333333---------------------|x4
e|1111111-1111111---------3333333-------------|

g|--------------------------------------------|
d|--------------------------------------------|
a|---------3-3--------------------------------|x2
e|1-11-111----333-----------------------------|

g|--------------------------------------------|
d|--------------------------------------------|
a|--------3-3-333-5-5-------3-3---------------|
e|1-11-111-----------55-11-1------------------|

verse

chorus


bridge

"if it wasnt for him"
g|--------------------------------------------|
d|--------------------------------------------|
a|--------3-33-3------------------------------|
e|11-11-11------333-1-11-11-1-5-55-333--------|

"if it wasnt for him he'd be as happy as me"
g|--------------------------------------------|
d|--------------------------------------------|
a|------------3-33----------------------------|
e|555-1-11-333--------------------------------|


intro

"when she and i settled down..."
g|--------------------------------------------|
d|--------------------------------------------|
a|--------------------------------------------|x2
e|1-11---0-00-333-----------------------------|

g|--------------------------------------------|
d|--------------------------------------------|
a|--------3333-------------------3------------|
e|11111111----333-5-555-3333-1111-------------|


chorus to end

i hope you like it. im not sure if the beat is right, but the notes are 100%. enjoy!
ⓘ Bass guitar tab for 'Girl S X Boyfriend' by Relient K, a mixed alternative rock artist. Relient K was born in 1997.

Almost there ...

Sign in to get your own page with links to favourite songs and more. You are just one click away...

Login with Facebook Login with Google