Log in

One click and you are in

Login with Facebook Login with Google

Why sign up and log in

Guitar Tabs Explorer
Relient K bass tabs for Deck the halls

Bass tabs

[INTRO]
G|----|----|----------------|----------------|
D|----|----|----------------|----------------|
A|----|5~--|9999999999999999|7777777777777777|
E|5~--|----|----------------|----------------|

G|----------------|----------------|----------------|----------------|
D|----------------|----------------|----------------|----------------|
A|----------------|----------------|----------------|----------------|
E|5555555555555555|1111111111111111|2222222222222222|0000000000000000|
[VERSE]
Deck the Halls with boughs of holly,
Fa la la la la, la la la la
Tis the season to be jolly
Fa la la la la, la la la la
G|----------------|----------------|
D|----------------|----------------|
A|----------------|5-5-------------| x2
E|5-5-5-5-5-5-5-5-|----5-5-0-0-5-5-|

Don we now our gay apparel
Fa la la la la la la la la
G|----------------|----------------|
D|----------------|----------------|
A|----------------|----------------|
E|0-0-0-0-5-5-5-5-|5-5-2-2-0-0-0---|

Trol the ancient yule tide carol
Fa la la la la la la la la
G|----------------|----------------|----|
D|----------------|----------------|----|
A|----------------|5-5-------------|----|
E|5-5-5-5-5-5-5-5-|----5-5-0-0-5---|----|

[INTERLUDE]
G|----------------|----------------|----------------|
D|----------------|----------------|----------------|
A|5555555555555555|----------------|----------------|
E|----------------|2222222222222222|0000000000000000|


[ENDING]
Fa la la......
G|----------------|----------------|----------------|----------------|----|
D|----------------|----------------|----------------|----------------|----|
A|----------------|----------------|----------------|----------------|----|
E|5555555555555555|1111111111111111|2222222222222222|0000000000000000|5~--|


************************************

| ~ Vibrato

Almost there ...

Sign in to get your own page with links to favourite songs and more. You are just one click away...

Login with Facebook Login with Google