Log in

One click and you are in

Login with Facebook Login with Google

Why sign up and log in

Guitar Tabs Explorer
Relient K bass tabs for Be my escape

Bass tabs

tabbed by: Ribsonbass@aol.com
standard tuning


intro
g--------------------------------------
d--------------------------------------
a-555555555555555555555----------------
e--------------------------------------

g--------------------------------------
d--------------------------------------
a--------------------------------------
e-2222222222222222444555---------------

g--------------------------------------
d--------------------------------------
a-555555555555555555555----------------
e--------------------------------------

g--------------------------------------
d-----44-------------------------------
a----0--4455555555--------77777777-----
e-222-------------55555555-------------

guitar solo verse


verse
g--------------------------------------
d--------------------------------------
a-0--2--5-----9--7--245----------------
e--------------------------------------

pre-chorous
g--------------------------------------
d-4444---------------------------------
a-----555500007777---------------------x3
e--------------------------------------

g--------------------------------------
d--------------------------------------
a-2222222255557777---------------------
e--------------------------------------

chorous
g--------------------------------------
d--------------------------------------
a-0-0-7-7-5-5-0-0-7-7-5-5-7------------
e--------------------------------------

g--------------------------------------
d--------------------------------------
a-0-0-7-7-5-5-7-7----------------------
e--------------------------------------

chorous ending 1
g--------------------------------------
d--------------------------------------
a-9--7-----7---------------------------
e-------7------------------------------

verse x2
pre-chorous
chorous

chorous ending 2
g--------------------------------------
d--------------------------------------
a-9--7--5--7---------------------------
e--------------------------------------

guitar solo

g--------------------------------------
d--------------------------------------
a--------------------------------------
e-2let-ring----------------------------

bass solo
g--------------------------------------
d-----44-------------------------------
a----0--4455555555---------------------
e-222-------------5555555577777777-----

g--------------------------------------
d-----44-------------------------------
a----0--4455555555---------------------
e-222-------------555555557777777777777777

rest

"...dyin to get out..."
g--------------------------------------
d--------------------------------------
a-9---5--------------------------------
e--------------------------------------

g--------------------------------------
d--------------------------------------
a-2222222255557777---------------------
e--------------------------------------

chorous w/ ending 2

Almost there ...

Sign in to get your own page with links to favourite songs and more. You are just one click away...

Login with Facebook Login with Google