Log in

One click and you are in

Login with Facebook Login with Google

Why sign up and log in

Guitar Tabs Explorer
Reliant K tabs for Less is more

Guitar tabs with lyrics

Band: Reliant K
Album: Anatomy of the Tongue and Cheek
 
Name: Josh Oakley
 
Standard Tuning- Capo on first fret
 
PC  means power chord
 
Starts with whatever rythem the guitar player is feeling, (it's a

solo)...
 
Here are the chords.... and their progression...
 
  E         Asus          B(PC)
 
|--0-------0--------------x-------------|
|--2-------0--------------3-------------|
|--2-------2--------------5-------------|
|--1-------2--------------5-------------|
|--0-------0--------------0-------------|
|--0-------0--------------0-------------|
 
Then there's the intrelude/transition part..... where he sings
"to the best of my ability"....
 
C#(PC)        Asus       B(PC)      A chord diagramE MajorE
 
|-x------------0----------x---------0----|
|-5------------0----------3---------2----|
|-7------------2----------5---------2----|
|-7------------2----------5---------1----|
|-0------------0----------0---------0----|
|-0------------0----------0---------0----|
 
Then it goes into an instrumental/humming interlude that follows this
progression...
 
E    Asus   B(PC)
 
The chorus is the same...
 
E   Asus   B(PC)
 
The actual interlude/interlude goes like this...
 
C#(PC)          Asus        E         B(PC)
 
|-x--------------0----------0----------x--------|
|-5--------------0----------2----------3--------|
|-7--------------2----------2----------5--------|
|-7--------------2----------1----------5--------|
|-0--------------0----------0----------0--------|
|-0--------------0----------0----------0--------|
 
After this he says, Jesus i Pray, know what i'm trying to say.....
 
and the chords are like this....  C#(PC) for the Jesus i pray, and A chord diagramA minorAm
for trying to say.....
 
A chord diagramA minorAm
 
|--0---|
|--0---|
|--2---|
|--2---|
|--1---|
|--0---|
 
So the progressions are this:
 

Verse: E   Asus  Asus  B(PC)

Chorus: E   Asus   B(PC)
Interlude: C#(PC)   Asus   E   B(PC)
 
Any questions or anything, email me.............

ⓘ Guitar tab for 'Less Is More' by, a female blues artist from Tennessee, United States. was born in 1957.

Almost there ...

Sign in to get your own page with links to favourite songs and more. You are just one click away...

Login with Facebook Login with Google