Log in

One click and you are in

Login with Facebook Login with Google

Why sign up and log in

Guitar Tabs Explorer
The Regrettes bass tabs for Pumpkin

Bass tabs

Tuning: Standard

((For main rhythm, play on 1 and the & of 2 each measure. Notes in pre-chorus, chorus, and bridge are held for full duration. Happy playing!))


G|---------------|---------------|---------------|----------------|
D|---------------|---------------|---------------|----------------|
A|1-----1--------|1-----1--------|1-----1--------|1-----1---------|
E|---------------|---------------|---------------|--------------4-|

 x2
G|---------------|---------------|---------------|----------------|
D|---------------|---------------|---------------|----------------|
A|1-----1--------|1-----1--------|1-----1--------|1-----1---------|
E|---------------|---------------|---------------|--------------4-|

G|---------------|---------------|---------------|----------------|
D|---------------|---------------|---------------|----------------|
A|---------------|---------------|1-----1--------|1-----1---------|
E|3-----3--------|3-----3--------|---------------|--------------4-|

 x2
G|---------------|---------------|---------------|----------------|
D|---------------|---------------|---------------|----------------|
A|3--------------|3--------------|---------------|----------------|
E|---------------|---------------|1--------------|1---------------|

 x2
G|---------------|---------------|---------------|----------------|
D|---------------|---------------|---------------|----------------|
A|1-----1--------|---------------|3-----3--------|----------------|
E|---------------|3-----3--------|---------------|1-----1---------|

 x2
G|---------------|---------------|---------------|----------------|
D|---------------|---------------|---------------|----------------|
A|1-----1--------|1-----1--------|1-----1--------|1-----1---------|
E|---------------|---------------|---------------|--------------4-|

G|---------------|---------------|---------------|----------------|
D|---------------|---------------|---------------|----------------|
A|---------------|---------------|1-----1--------|1-----1---------|
E|3-----3--------|3-----3--------|---------------|--------------4-|

 x2
G|---------------|---------------|---------------|----------------|
D|---------------|---------------|---------------|----------------|
A|3--------------|3--------------|---------------|----------------|
E|---------------|---------------|1--------------|1---------------|

 x2
G|---------------|---------------|---------------|----------------|
D|---------------|---------------|---------------|----------------|
A|1-----1--------|---------------|3-----3--------|----------------|
E|---------------|3-----3--------|---------------|1-----1---------|

 x2
G|---------------|---------------|---------------|----------------|
D|---------------|---------------|---------------|----------------|
A|1-----1--------|---------------|3-----3--------|----------------|
E|---------------|3-----3--------|---------------|1-----1---------|


G|---------------|---------------|---------------|----------------|
D|---------------|---------------|---------------|----------------|
A|3--------------|3--------------|---------------|----------------|
E|---------------|---------------|1--------------|1-------1-------|

G|----------------|
D|----------------|
A|----------------|
E|1---1---1---1---|

 x4
G|---------------|---------------|---------------|----------------|
D|---------------|---------------|---------------|----------------|
A|1-----1--------|---------------|3-----3--------|----------------|
E|---------------|3-----3--------|---------------|1-----1---------|

Almost there ...

Sign in to get your own page with links to favourite songs and more. You are just one click away...

Login with Facebook Login with Google