Log in

One click and you are in

Login with Facebook Login with Google

Why sign up and log in

Guitar Tabs Explorer
The Regrettes bass tabs for Juicebox baby

Bass tabs

Tuning: Standard (E A D G)


Verse 1:

G|---------------------------------------------------------------|
D|---------------------------------------------------------------|
A|---------5-5---5-5-5--5-5-5--5-5-5--5-7-7---7-7-7--7-----------|
E|-5-5-7-8--------------------------------------------5-5--5-5-5-|

G|----------------------------------------------------------------------------------------|
D|----------------------------------------------------------------------------------------|
A|--5-5---5-5-5--5-5-5--5-5-5--5-7-7---7-7-7--7-------------5-5--5-5-5--5-5-5--5-5-5-5-5--|
E|-5-------------------------------------------5-5--5-5-5--5------------------------------|


Chorus:

G|--------------------------------------------------------------------|
D|--------------------------------------------------------------------|
A|-7-7-7-7---------7-7-7-7---------7-7-7-7----------------------------|
E|---------5-5-5-5---------5-5-5-5---------5-5-5-5--3-3-3-3--5-5-5-5--|


Verse 2:

G|-------------------------------------------------------------------------------------------------|
D|-------------------------------------------------------------------------------------------------|
A|-5-5--5-5-5--5-5-5--5-5-5--5-7-7--7-7-7--7---------------5-5--5-5-5--5-5-5--5-5-5--5-7-7--7-7-7--|
E|-------------------------------------------5-5--5-5-5--5-----------------------------------------|

G|--------------------------------------------|
D|--------------------------------------------|
A|-7---------------5-5--5-5-5--5-5-5--5-5-5-5-|
E|---5-5--5-5-5--5----------------------------|


Chorus:

G|--------------------------------------------------------------------|
D|--------------------------------------------------------------------|
A|-7-7-7-7---------7-7-7-7---------7-7-7-7----------------------------|
E|---------5-5-5-5---------5-5-5-5---------5-5-5-5--3-3-3-3--5-5-5-5--|

G|--------------------------------------------------------------------|
D|--------------------------------------------------------------------|
A|-7-7-7-7---------7-7-7-7---------7-7-7-7----------------------------|
E|---------5-5-5-5---------5-5-5-5---------5-5-5-5--3-3-3-3--5-5-5-5--|


Bridge:

G|------------------------------------------------------------------------------------|
D|------------------------------------------------------------------------------------|
A|-5-5--5-5-5--5-5-5--5-5-5--5-7-7--7--------7-7--7--------7-7--7---------------------|
E|------------------------------------5-5--5--------5-5--5--------5-5--5-3-3--3-5-5-5-|

G|-----------------------------------------------------------|
D|-----------------------------------------------------------|
A|---7-7--7--------7-7--7--------7-7--7----------------------|
E|-5--------5-5--5--------5-5--5--------5-5--5-3-3--3-5-5--5-|


Chorus:

G|---------------------------------------------------------------|
D|---------------------------------------------------------------|
A|---------5-5---5-5-5--5-5-5--5-5-5--5-7-7---7-7-7--7-----------|
E|-5-5-7-8--------------------------------------------5-5--5-5-5-|

G|---------------------------------------------------|
D|---------------------------------------------------|
A|---5-5--5-5-5--5-5-5--5-5-5--5-5-5--5-5-5--17----5-|
E|-5--------------------------------------------17---|

Almost there ...

Sign in to get your own page with links to favourite songs and more. You are just one click away...

Login with Facebook Login with Google