Log in

One click and you are in

Login with Facebook Login with Google

Why sign up and log in

Guitar Tabs Explorer
The Regrettes bass tabs for I dare you

Bass tabs

Tuning: Standard (E A D G)

Difficulty: Novice


Intro:
G|-------------------|-------------------|-------------------|-------------------|
D|----------------6--|--8-8-8-8-8-8-8----|--6-6-6-6-6-6-6-3--|-------------------|
A|--4-4-4-4-4-4-4----|----------------8--|-------------------|--4-4-4-4-4-4-4-4--|
E|-------------------|-------------------|-------------------|-------------------|

Verse 1:
G|-------------------|-------------------|-------------------|-------------------|
D|--11--11-----------|--6h8--8-----------|----6--6-----------|--3----------------|
A|-------------------|-------------------|--8----------------|----4--4-----------| (x2)
E|-------------------|-------------------|-------------------|-------------------|


Refrain:
G|-----------------------------------|---------------------------------------|
D|------------------11--13-11----11--|--10-10-10-10-8-8-8-8-6-6-6-6-6-6------|
A|--6--8-9--11--13------------13-----|----------------------------------9-8--|
E|-----------------------------------|---------------------------------------|

G|-----------------------------------|---------------------------------------|
D|------------------11--13-15-13-11--|--10-10-10-10-8-8-8-8-6-6-6-6-6-6-6-6--|
A|--6--8-9--11--13-------------------|---------------------------------------|
E|-----------------------------------|---------------------------------------|


Chorus 1:
G|-------------------|-------------------|-------------------|-------------------|
D|----------------6--|--8-8-8-8-8-8-8----|--6-6-6-6-6-6-6-3--|-------------------|
A|--4-4-4-4-4-4-4----|----------------8--|-------------------|--4-4-4-4-4-4-4-4--|
E|-------------------|-------------------|-------------------|-------------------|

G|-----------------------|-------------------|-------------------|-------------------|
D|--11-11-11-11-11-11-6--|--8-8-8-8-8-8-8----|--6-6-6-6-6-6-6-3--|-------------------|
A|-----------------------|----------------8--|-------------------|--4-4-4-4-4-4-4-4--| (x2)
E|-----------------------|-------------------|-------------------|-------------------|


Verse 2:
G|-------------------|-------------------|-------------------|-------------------|
D|--11--11-----------|--6h8--8-----------|----6--6-----------|--3----------------|
A|-------------------|-------------------|--8----------------|----4--4-----------| (x2)
E|-------------------|-------------------|-------------------|-------------------|


Chorus 2:
G|-----------------------|-------------------|-------------------|-------------------|
D|--11-11-11-11-11-11-6--|--8-8-8-8-8-8-8----|--6-6-6-6-6-6-6-3--|-------------------|
A|-----------------------|----------------8--|-------------------|--4-4-4-4-4-4-4-4--| (x2)
E|-----------------------|-------------------|-------------------|-------------------|


Outro: 02:22
G|-------------------|-------------------|-------------------|-------------------|
D|----------------6--|--8-8-8-8-8-8-8----|--6-6-6-6-6-6-6-3--|-------------------|
A|--4-4-4-4-4-4-4----|----------------8--|-------------------|--4-4-4-4-4-4-4-4--|
E|-------------------|-------------------|-------------------|-------------------|

G|-----------------------|-------------------|-------------------|-------------------|
D|--11-11-11-11-11-11-6--|--8-8-8-8-8-8-8----|--6-6-6-6-6-6-6-3--|-------------------|
A|-----------------------|----------------8--|-------------------|--4-4-4-4-4-4-4-4--| (x2)
E|-----------------------|-------------------|-------------------|-------------------|


************************************

| h  Hammer-on

************************************

Almost there ...

Sign in to get your own page with links to favourite songs and more. You are just one click away...

Login with Facebook Login with Google